Guitar Tabs
song title    band name

Join Us Today!

Don't strum alone...
be a part of the largest online Christian music community. Browse thousands of guitar tabs and chat w/ musicians like yourself.


It's Free!

Chapman, Steven Curtis - Not Home Yet

This tab has not yet been rated for accuracy.Sorry, but you must be logged in to rate this tab.
Click here to log-in, or you can click here to register.
(Registration is free)

All songs owned by corresponding publishing company. If you make copies of any song on this website, be sure to report your usage to CCLI.
Steven Curtis Chapaman                    
Not Home Yet
Greatist Hits   
Submitted by: Brandon Whiteside at Whitesbh@pagesz.net

This song is in Drop-D tuning.  EBGDAD.

I figured this out on the Dove Awards so email me with any corrections! 

This is only the intro.

intro
1------------------------------
2------------------------------
3---7-7-7/9-6-6-4--------------
4---5-5-5/7-4-4-5-------0-0----
5-------------------0h2--------
6---------------------------0-0

Comments about this tab

mansonstinks - 2004-10-25

tuning: DADGAD
D-------------------------------------------
A--5-5-5/7--4-4-5---------------------------
G-------------------------------------------
D--5-5-5/7--4-4-5---0---0---0-------00------
A-------------------------------0h5---------
D------------------0--0--0---0---------7p0--


Add a comment/correction

Complimentary Christian Ringtones
Dadamobile and CGR have teamed up to bring your favorite Christian artists right to your phone. Sign up today and get 10 complementary ringtones!
Tab Country
Did you know CGR has a sister site w/ country guitar tabs? Well we do! Its called Tab Country. It has a great archive with a lot of country tabs.
Rockin Tabs
Are you looking for a site that has rock guitar tabs? Then Rockintabs.com is the place for you. It is a budding site with many rock guitar tabs. Submit your tab today.
Tab Gallery
Tab Gallery has a compilation of christian, rock, and country tabs all in one place. Come visit us.