Guitar Tabs
song title    band name

Join Us Today!

Don't strum alone...
be a part of the largest online Christian music community. Browse thousands of guitar tabs and chat w/ musicians like yourself.


It's Free!

This tab has been rated a 4.00 out of 5 for accuracy. (1 vote)Sorry, but you must be logged in to rate this tab.
Click here to log-in, or you can click here to register.
(Registration is free)

All songs owned by corresponding publishing company. If you make copies of any song on this website, be sure to report your usage to CCLI.
Artist: CADET
Song: GOD MAN (Jesus Is My Superhero)
Album: Cadet
Tabbed by: Christine F.

INTRO:
e|----7-----9-----7--------6---------------------------------|
B|---7-----7-----6--------7----------------9999999988888888--|
G|--6-----6-----6--------8-----------------9999999988888888--|
D|-7-----6-----6--------8------------------7777777766666666--|
A|-----------------------------------------------------------|
E|-----------------------------------------------------------|
 Here's  to  Him     My guardian...

Main Riff:
e|---------------------------------------------|
B|---------------------------------------------|
G|---------------------------------------------|
D|-------------------------------------8-------| x2
A|--8h9--6--9-9h10--6--10-10h11--8--11---------|
E|---------------------------------------------|

VERSE:
D#    C#      B           A#           D#
There he is... He moves faster than light
    C#       B    A#            D#
His body holds... tremendous might
C#               B      A#     D#
His face does shine... ever so bright
C#      B       A#      B      C#
His enemies tremble... with fright


*thats all I have tabbed for now, when I have time, I'll add the rest.
If you have any corrections, comments, etc. please e-mail me at
steen1@guitar.com. 

Comments about this tab

No comments/corrections found. Add your own

Complimentary Christian Ringtones
Dadamobile and CGR have teamed up to bring your favorite Christian artists right to your phone. Sign up today and get 10 complementary ringtones!
Tab Country
Did you know CGR has a sister site w/ country guitar tabs? Well we do! Its called Tab Country. It has a great archive with a lot of country tabs.
Rockin Tabs
Are you looking for a site that has rock guitar tabs? Then Rockintabs.com is the place for you. It is a budding site with many rock guitar tabs. Submit your tab today.
Tab Gallery
Tab Gallery has a compilation of christian, rock, and country tabs all in one place. Come visit us.