Guitar Tabs
song title    band name

Join Us Today!

Don't strum alone...
be a part of the largest online Christian music community. Browse thousands of guitar tabs and chat w/ musicians like yourself.


It's Free!

P.O.D. - Youth Of The Nation

This tab has been rated a 4.80 out of 5 for accuracy. (5 votes)Sorry, but you must be logged in to rate this tab.
Click here to log-in, or you can click here to register.
(Registration is free)

All songs owned by corresponding publishing company. If you make copies of any song on this website, be sure to report your usage to CCLI.
Song: Youth Of The Nation
Band: P.O.D.
Album: Satellite
Tabbed By: Matt Price (matt@homerband.com)
http://www.homerband.com

Tune to drop D and then tune all the strings down 1 step
CGCFAD

Intro: (with Delay) !!Play slow!!
d--------------------
a--------------------
f--------------------
C-------------5--3-0-
G--------------------
C--0-(hold)-3--------

Verse: (Delay)  !!Play Slow!!
d-------------------
a-------------------
f------2------------
C----0--------5-3-0- x4
G-------------------
C--0------3---------

d----10--12-13----10-----
f--10-----------10-------
a------------------------
C---------------------10-
G------------------------
C------------------------

Chorus: (with Delay)
d--------------------
a--------------------
f--------------------
C-------------5--3-0-
G--------------------
C--0-(hold)-3--------

Bridge: (with Distortion)
d--------------------------------------
a----5-6--5-6--8--8p6p5--5h6p5---5-----
f--7---------------------------7----7-5
C--------------------------------------  x2
G--------------------------------------
C--------------------------------------

The whole song is basically heavy delay. There aren't very many notes
because Marcos makes every note sound powerful, So you have to hold
all the notes on the bottom C string and let the delay sink in.

Comments about this tab

chriss - 2004-03-25

This works well, but if you use 5/0 instead of 5-3-0 in the intro, it's easier to keep rhythm. It sounds good too.

Blessings y'all


Richard H - 2004-05-30

The last part of the song is going like this:
c---------3-2---
g---------------
c-0-(hold)------


pillarock3 - 2004-08-14

the verse goes more like this

d-----------------
a-----------------
f------2----0----- (repeat)
c-------------5353
g-----------------
c-0--0----3-------


jdwise5509c - 2005-01-07

lol i just noticed how much of a boring song this is for guitar but it works at least its a song and good words and bass and drums work!good job got no complaints =D


Guitarmast3rrg - 2005-08-06

Hey man everything is really good except the solo, but trust me man, i got ya on this one, im sure it goes like this...

-------------------------------------
-------------------------------------
-6-8-9-8-9-11-11p9p8----8h9p8\6/8-6\4
-------------------------------------
-------------------------------------
-------------------------------------

ok later dude and God Bless.


guitar_zero16 - 2007-05-21

I like it. Being a girl and knowing about guitar chords and tabs works great in rating someones hard work and I just want to say you can change any part of the song to what you think, but at least someone tried their best to make the song sound really good and put it in their own chords or tabs, so thank you very much for making this for us. Sonya Hayden


Az rox your sox - 2010-09-13

P.O.D is such an awesome band. Ive only being playing guitar for like 2 and a half years or something and already i play P.O.D.

P.S delay is set to 450ms


Add a comment/correction

Complimentary Christian Ringtones
Dadamobile and CGR have teamed up to bring your favorite Christian artists right to your phone. Sign up today and get 10 complementary ringtones!
Tab Country
Did you know CGR has a sister site w/ country guitar tabs? Well we do! Its called Tab Country. It has a great archive with a lot of country tabs.
Rockin Tabs
Are you looking for a site that has rock guitar tabs? Then Rockintabs.com is the place for you. It is a budding site with many rock guitar tabs. Submit your tab today.
Tab Gallery
Tab Gallery has a compilation of christian, rock, and country tabs all in one place. Come visit us.