Guitar Tabs
song title    band name

Join Us Today!

Don't strum alone...
be a part of the largest online Christian music community. Browse thousands of guitar tabs and chat w/ musicians like yourself.


It's Free!

Thousand Foot Krutch - Puppet

This tab has been rated a 1.67 out of 5 for accuracy. (9 votes)Sorry, but you must be logged in to rate this tab.
Click here to log-in, or you can click here to register.
(Registration is free)

All songs owned by corresponding publishing company. If you make copies of any song on this website, be sure to report your usage to CCLI.
Song: Puppet
Band: Thousand Foot Krutch
Album: Set It Off
Copyright: 2000 DJD Entertainment Group
Tabbed By: Drew Chabala ( DjCool357@knac.com )
WJFRLIVE.8M.COM

!! Tuning - B, F#, B, E, G#, D# !!

Intro 2x:
D#----------------------------------------------------------------------------
G#----------------------------------------------------------------------------
E-----------------------------------------------------------------------------
B---5-4-9-9-9-9-9-9-9--5-4-0-0-0-0-0-0-0--5-4-9-9-9-9-9-9-9--5-4-0-0-0-0-0-0-0
F#--5-4-9-9-9-9-9-9-9--5-4-0-0-0-0-0-0-0--5-4-9-9-9-9-9-9-9--5-4-0-0-0-0-0-0-0
B---3-2[7-7-7-7-7-7-7]-3-2[8-8-8-8-8-8-8]-3-2[7-7-7-7-7-7-7]-3-2-8-8-8-8-8-8-8
       [   H & P/O   ]    [   H & P/O   ]    [   H & P/O   ]

Verses 4x:
D#-----------
G#-----------
E------------
B---4--4-5--4--5--4--4-5--4
F#--4--4-5--4--5--4--4-5--4        
B---2--2-3--2--3--2--2-3--2

Bridge 3x:
D#--------------------------
G#--------------------------
E---------------------------
B---4--4-5--4--4--4-5--0--4--4-5--4--4--4-5--0
F#--4--4-5--4--4--4-5--0--4--4-5--4--4--4-5--0             
B---2--2-3--2--2--2-3--0--2--2-3--2--2--2-3--0

Chorus 2x:
D#----------------------------------------------------------------------------
G#----------------------------------------------------------------------------
E-----------------------------------------------------------------------------
B---5-4-9-9-9-9-9-9-9--5-4-0-0-0-0-0-0-0--5-4-9-9-9-9-9-9-9--5-4-0-0-0-0-0-0-0
F#--5-4-9-9-9-9-9-9-9--5-4-0-0-0-0-0-0-0--5-4-9-9-9-9-9-9-9--5-4-0-0-0-0-0-0-0
B---3-2[7-7-7-7-7-7-7]-3-2[8-8-8-8-8-8-8]-3-2[7-7-7-7-7-7-7]-3-2-8-8-8-8-8-8-8
       [    H & P/O  ]    [   H & P/O   ]    [   H & P/O   ]

The fast part near the end 8x:
D#--------------------------
G#--------------------------
E---------------------------
B---5-5-5-5--4--5--4--5--9--5-5-5-5--4--5--4--5--9
F#--5-5-5-5--4--5--4--5--9--5-5-5-5--4--5--4--5--9
B---3-3-3-3--2--3--2--3--7--3-3-3-3--2--3--2--3--7
[------------------------------------------------------------------------------]
The Ryhthm is not exact you will have to listen
to the song to get it right but I think
it's all right if you find any problems e-mail me 
DjCool357@knac.com
To here more bands like this one check out my
online radio staiton
WJFRLIVE.8M.COM
[------------------------------------------------------------------------------]
Signs:
[    H & P/O   ] = Hammer And Pull Off
[------------------------------------------------------------------------------]
Chords:
355XXX = G
244XXX = F#
799XXX = G
800XXX = C
[------------------------------------------------------------------------------]

Comments about this tab

SSj Guitarist - 2004-10-20

What the crap?

SSj


njsk8rboy - 2005-01-13

same here?!?


akaukal - 2006-03-28

dude? did u listen to the song before u tabbed it?


Dani_Boy - 2006-04-24

The chords sound awful! It's in Drop B, so you take them with one finger, not like regular powerchords.


Te eF Kay - 2006-05-12

this song is very hard to tab I know cause Im trying to do it!


Add a comment/correction

Complimentary Christian Ringtones
Dadamobile and CGR have teamed up to bring your favorite Christian artists right to your phone. Sign up today and get 10 complementary ringtones!
Tab Country
Did you know CGR has a sister site w/ country guitar tabs? Well we do! Its called Tab Country. It has a great archive with a lot of country tabs.
Rockin Tabs
Are you looking for a site that has rock guitar tabs? Then Rockintabs.com is the place for you. It is a budding site with many rock guitar tabs. Submit your tab today.
Tab Gallery
Tab Gallery has a compilation of christian, rock, and country tabs all in one place. Come visit us.