Guitar Tabs
song title    band name

Join Us Today!

Don't strum alone...
be a part of the largest online Christian music community. Browse thousands of guitar tabs and chat w/ musicians like yourself.


It's Free!

Chapman, Steven Curtis - Lord Of The Dance

This tab has not yet been rated for accuracy.Sorry, but you must be logged in to rate this tab.
Click here to log-in, or you can click here to register.
(Registration is free)

All songs owned by corresponding publishing company. If you make copies of any song on this website, be sure to report your usage to CCLI.
Lord of the Dance
by Steven Curtis Chapman
Album: Signs of Life
Copyright 1996 Sparrow Song/Peach Hill Songs/BMI
(admin. EMI Christian Music Publishing)

Submitted by Cody Pitre, cpitre@intop.net
vist my tab page at: 
http://www.intop.net/~cpitre/index.html
----------------------------------------

First start by tuning your 6th string to a D.
Then tune the whole guitar down 1/2 step

(*not exact, but I think it's pretty close*)

Intro:

E :--0----0----------|---0--0-0---------|--------------------|
B :--0----0----------|--b2-r2-0---------|--------------------|
G :-b3---b3----------|------------------|--------------------|
D :----4-------------|------------------|------3-3-----------|
A :------------------|------------------|-0-h3-----5---------|
D :------------------|------------------|--------------------|


E :--------------------|------0--0-0-------|-----------------------|
B :--------------------|-----b2-r2-0-------|-----------------------|
G :--------------------|---4---------------|-----------------------|
D :--------------------|-4-----------------|-------------3---------|
A :-0-h3-5-------------|-------------------|---0-h3-0-h5---5-------|
D :--------3p0---------|-------------------|-0---------------3p0--|
                                   pause...

E :-------------------------|                  |---------------------------|
B :-------------------------|repeat            |---------------------------|
G :-------------------------|last              |---------------------------|
D :-------------------------|two               |----------------3----------|
A :--0-h3-0-h5-3p0----------|measures          |--0-h3-0-h5-------5--------|
D :0----------------3p0-----|                  |0-------------------3p0----|
                                               Da,da,da,da,da  da da
E :-----------------------------|
B :--------------------6-p3-----|
G :-----------------------------|
D :------------3p0--------------|
A :--0-h3-0-h5----3p0-----------|
D :0----------------------------|
    Da,da,da,da,da     da da


D6                           Esus/B   Gmaj7
On the bank of the Tennesse River
                     A
In a small Kentucky town
Bm                         Gmaj7              
I drew my first breath one cold November morning
       D                             F#m
And before my feet even touched the ground
             D                             F#sus
With the doctors and the nurses gathered 'round
F#m           Bm
I started to dance
 
I started to dance

Verse 1:

D6                              Esus/B   Gmaj7
A little boy full of wide-eyed wonder
                     A
Footloose and fancy free
Bm                         Gmaj7
But it would happen, as it does for every dancer
             D                         F#m
That I'd stumble on a truth I couldn't see
      D                           F#m
And find a longing deep inside of me, it said

Chorus:

Bm
I am the heart, I need the heartbeat
Gmaj7
I am the eyes, I need the sight
Esus/B                   Gmaj7
I realize that I am just a body
  A
I need the life
Bm                                       Gmaj7
I move my feet, I go through the motions

But who'll give purpose to chance
Esus/B
I am the dancer
  Gmaj7     A           Bm
I need the Lord of the dance

Verse 2:
The world beneath us spins in circles
And this makes us twist and turn and sway
But we were made for more than rhythm with no reason
By the one who moves with passion and with grace
As He dances over all that He has made

Comments about this tab

No comments/corrections found. Add your own

Complimentary Christian Ringtones
Dadamobile and CGR have teamed up to bring your favorite Christian artists right to your phone. Sign up today and get 10 complementary ringtones!
Tab Country
Did you know CGR has a sister site w/ country guitar tabs? Well we do! Its called Tab Country. It has a great archive with a lot of country tabs.
Rockin Tabs
Are you looking for a site that has rock guitar tabs? Then Rockintabs.com is the place for you. It is a budding site with many rock guitar tabs. Submit your tab today.
Tab Gallery
Tab Gallery has a compilation of christian, rock, and country tabs all in one place. Come visit us.