Guitar Tabs
song title    band name

Join Us Today!

Don't strum alone...
be a part of the largest online Christian music community. Browse thousands of guitar tabs and chat w/ musicians like yourself.


It's Free!

DC Talk - Mind's Eye

This tab has been rated a 4.50 out of 5 for accuracy. (2 votes)Sorry, but you must be logged in to rate this tab.
Click here to log-in, or you can click here to register.
(Registration is free)

All songs owned by corresponding publishing company. If you make copies of any song on this website, be sure to report your usage to CCLI.
M   I   N   D ‘  S       E   Y   E

DC Talk

BACKGROUND SOUND during intro  – move your finger on the string to make the
sound match

E ------------------------------------------------------------------------------
B-------------------------------------------------------------------------------
G-------------------------------------------------------------------------------
D---7--------7----------7--------7-----------7---------7----------7----------7--
A-------------------------------------------------------------------------------
E-------------------------------------------------------------------------------


E-------------------------------------------------------------------------------
B-------------------------------------------------------------------------------
G-------------------------------------------------------------------------------
D----0-0-----3-----5------7-----10------3-----5-----7-----5—5h3---3---2---2---0-
A-------------------------------------------------------------------------------
E-------------------------------------------------------------------------------
 

VERSE 1

D     C     G   
D     C     G
Bb    F     C
G     Bb    C               

CHORUS

F     G     Dm
Bb    C
F     G     Dm
Bb    C     Dm    Bb    C    Dm

E-------------------------------------------------------------------------------
B-------------------------------------------------------------------------------
G-------------------------------------------------------------------------------
D----0-0-----3-----5-----7-----10------3------5-----7-----5—5h3---3---2---2---0-
A-------------------------------------------------------------------------------
E-------------------------------------------------------------------------------


VERSE 2

D     C     G            
D     C     G 
Bb    F
C     G     Bb    C        


(CHORUS)

E-----------------------------------------------------------------888888-----10-
B-----------------------------------------------------------------888888--------
G-------------------------------------------------------------------------------
D---0-----0------3-------5------7------10------0---3----5---7---5—--------------
A-------------------------------------------------------------------------------
E-------------------------------------------------------------------------------
 
BRIDGE  - The electric guitar plays the same chord  (Dm) through the whole
BRIDGE(you can play it like this if you like):

                          
Dm    F     Dm    F
Dm    F     Dm    F
Dm    F     Dm    F
Dm    F     Dm    F     Bb
C     G     Bb    C
          

(CHORUS) repeat

OUTRO-

E-------------------------------------------------------------------------------
B-------------------------------------------------------------------------------
G-------------------------------------------------------------------------------
D-------------------------------------------------------------------------------
A-------------------------------------------------------------------------------
E----1------3------5-------3--------3-------1--------3------5-----6--------8---- 

It’s very hard to explain when to play what I tried my best!
COOL SONG
GET THE C.D (JESUS FREAK-dc TALK)if you don't have it! 

Comments about this tab

Echo6 - 2004-07-12

Intro

D:-0-0-0-3-5-7-10--0-3-5-7-5--3-3-2-2-0-0
A:-------------------------------------3


timmy_the_tooth - 2004-08-17

I sat down and figured this one out and its PERFECT (i think ^^). Anyways, just play around with it, you'll figure it out sooner or later :)

D:---0--0--0/3--5--10--------3--3--5--7--5-----3--2--0--2--------0-
A:---------------------------------------------------------5--3----
E:-----------------------------------------------------------------


Watermarked - 2004-10-15

Thanks so much for tabbing my favorite song! Here's an alternate way to play the intro that works well on my acoustic guitar--mute the open G string as you go on to the next note.

E---------------------------------------------------------------------------
B---------------------------------------------------------------------------
G------------------0---2---5----------------0---2---0-----------------------
D--0-------0---3--------------------0---3-----------------—-3---2---0-------
A-----------------------------------------------------------------------3---
E---------------------------------------------------------------------------

I repeat once, then go into D and start chords & singing. *glass shatters* ^_^


Add a comment/correction

Complimentary Christian Ringtones
Dadamobile and CGR have teamed up to bring your favorite Christian artists right to your phone. Sign up today and get 10 complementary ringtones!
Tab Country
Did you know CGR has a sister site w/ country guitar tabs? Well we do! Its called Tab Country. It has a great archive with a lot of country tabs.
Rockin Tabs
Are you looking for a site that has rock guitar tabs? Then Rockintabs.com is the place for you. It is a budding site with many rock guitar tabs. Submit your tab today.
Tab Gallery
Tab Gallery has a compilation of christian, rock, and country tabs all in one place. Come visit us.