Guitar Tabs
song title    band name

Join Us Today!

Don't strum alone...
be a part of the largest online Christian music community. Browse thousands of guitar tabs and chat w/ musicians like yourself.


It's Free!

Mullins, Rich - Ready For The Storm

This tab has not yet been rated for accuracy.Sorry, but you must be logged in to rate this tab.
Click here to log-in, or you can click here to register.
(Registration is free)

All songs owned by corresponding publishing company. If you make copies of any song on this website, be sure to report your usage to CCLI.
I'm Ready For The Storm                             


Dougie McLain
 (Capo 2)
Rich Mullins   -  tempo = 152

Tabbed by Mike McKenna (mckaynj@aol.com)
Monmouth Worship Center, Marlboro NJ
I have software that produces a really decent tab with all the timing and
rhythm markings, repeats, chord diagrams etc...  If you'd like a copy of this,
email me with your address and I'll mail it to you.

                                                        
E||------5h-3h-0--2/-3h-0-----|-----------0---------0--|
B||---------------------------|--------3---------3-----|
G||*-----------------------0--|--2/-4------------------|
D||*--------------------------|------------------------|
A||---------------------------|------------------------|
E||---0-----------------------|------------------------|


                                                                               
-----5h-3h-0--2/-3h-0-----|-----------0---------0--|-----5h-3h-0--2/-3h-0-----|
--------------------------|--------3---------3-----|--------------------------|
-----------------------0--|--2/-4------------------|-----------------------0--|
--------------------------|------------------------|--------------------------|
--------------------------|------------------------|--------------------------|
--0-----------------------|------------------------|--0-----------------------|


                                                                            
-----------0--------0--|--3--2--0--------------0--|---------0---------0---||
--------3--------------|--------------------3-----|------3---------3------||
--2/-4-----------------|-----------0--2/-4--------|----------------------*||
-----------------------|--------------------------|----------------------*||
-----------------------|--------------------------|-----------------------||
-----------------------|--0-----------------------|-----------------------||


                             Em7                                      
--3--2--0--------------0--|-------0--------0----|------0--------0----|
-----------0--------3-----|-------3--------3----|------3--------3----|
--------------2/-4--------|-------0--------0----|------0--------0----|
--------------------------|-------2--------2----|------2--------2----|
--------------------------|-------2--------2----|------2--------2----|
--0-----------------------|--0------------------|--------------------|


    Em7                      Em7                      D2                     
|------------0----0-------|-----------0----0-------|-----------0----0-------|
|---------3----------3----|--------3----------3----|--------3----------3----|
|*-----0------------------|-----0------------------|-----2------------------|
|*--2---------------------|--2---------------------|--0---------------------|
|-------------------------|------------------------|------------------------|
|-------------------------|------------------------|------------------------|


  D2                       Cadd9                    Cadd9                  
-----------0----0-------|-----------0----0-------|-----------0----0-------|
--------3----------3----|--------3----------3----|--------3----------3----|
-----2------------------|-----0------------------|-----0------------------|
--0---------------------|------------------------|------------------------|
------------------------|--3---------------------|--3---------------------|
------------------------|------------------------|------------------------|


  D2                       D2                          Em7                    
-----------0----0-------|-----------0----0--------||------------0----0-------|
--------3----------3----|--------3----------3-----||---------3----------3----|
-----2------------------|-----2------------------*||*-----0------------------|
--0---------------------|--0---------------------*||*--2---------------------|
------------------------|-------------------------||-------------------------|
------------------------|-------------------------||-------------------------|


  Cadd9                    Bm7                      Bm7                      
-----------0----0-------|------------------------|-------------------------||
--------3----------3----|-----------3----3-------|-----------3----3--------||
-----0------------------|--------2----------2----|--------2----------2----*||
------------------------|-----4------------------|-----4------------------*||
--3---------------------|--2---------------------|--2----------------------||
------------------------|------------------------|-------------------------||


                                                                               
-----5h-3h-0--2/-3h-0-----|-----------0---------0--|-----5h-3h-0--2/-3h-0-----|
--------------------------|--------3---------3-----|--------------------------|
-----------------------0--|--2/-4------------------|-----------------------0--|
--------------------------|------------------------|--------------------------|
--------------------------|------------------------|--------------------------|
--0-----------------------|------------------------|--0-----------------------|


                                                                            
-----------0---------0--|-----5h-3h-0--2/-3h-0-----|-----------0--------0--|
--------3---------3-----|--------------------------|--------3--------------|
--2/-4------------------|-----------------------0--|--2/-4-----------------|
------------------------|--------------------------|-----------------------|
------------------------|--------------------------|-----------------------|
------------------------|--0-----------------------|-----------------------|


                                                                         
--3--2--0--------------0--|-----------0-------0----|------0--------0----|
-----------0--------3-----|--------3----------0----|------3--------3----|
--------------2/-4--------|--2h-4-------------0----|------0--------0----|
--------------------------|-------------------2----|------2--------2----|
--------------------------|-------------------2----|------2--------2----|
--0-----------------------|--------------0---------|--------------------|


    Em7                       Em7                       D2                      
|------------0----0--------|-----------0----0--------|-----------0----0--------|
|---------3----------3-----|--------3----------3-----|--------3----------3-----|
|*-----0----------------0--|-----0----------------0--|-----2----------------0--|
|*--2----------------------|--2----------------------|--0----------------------|
|--------------------------|-------------------------|-------------------------|
|--------------------------|-------------------------|-------------------------|


  D2                        Cadd9                     Cadd9                   
-----------0----0--------|-----------0----0--------|-----------0----0--------|
--------3----------3-----|--------3----------3-----|--------3----------3-----|
-----2----------------0--|-----0----------------0--|-----0----------------0--|
--0----------------------|-------------------------|-------------------------|
-------------------------|--3----------------------|--3----------------------|
-------------------------|-------------------------|-------------------------|


  D2                        D2                          D2                     
-----------0----0--------|-----------0----0---------||-----------0-------0----|
--------3----------3-----|--------3----------3------||--------3-------3-------|
-----2----------------0--|-----2----------------0--*||-----2------------------|
--0----------------------|--0----------------------*||--0---------------------|
-------------------------|--------------------------||------------------------|
-------------------------|--------------------------||------------------------|


  Em                     C                      Bm7                    
--0--------0----0--0--|--0--------0----0--0--|--2----2--2--2----2--2--|
--0--------0----0--0--|--1--------1----1--0--|--3----3--3--3----3--3--|
--0--------0----0--0--|--0--------0----0--0--|--2----2--2--2----2--2--|
--2--------2----2--0--|--2--------2----2--0--|--4----4--4--4----4--4--|
--2--------2----2-----|--3--------3----3-----|--2----2--2--2----2--2--|
--0--------0----0-----|----------------------|------------------------|


  Bm7                      Em                     C                    
--2----2--2--2------2-2-|--0--------0----0--0--|--0--------0----0--0--|
--3----3--3--3------3-3-|--0--------0----0--0--|--1--------1----1--0--|
--2----2--2--2------2-2-|--0--------0----0--0--|--0--------0----0--0--|
--4----4--4--4------4-4-|--2--------2----2--0--|--2--------2----2--0--|
--2----2--2--2------2-2-|--2--------2----2-----|--3--------3----3-----|
------------------------|--0--------0----0-----|----------------------|


  Bm7                      Bm7                       C/E                   
--2----2--2--2----2--2--|--2----2--2--2------2--||---0------0--0----0--0--|
--3----3--3--3----3--3--|--3----3--3--3------3--||---1------1--1----1--1--|
--2----2--2--2----2--2--|--2----2--2--2------2--||*--0------0--0----0--0--|
--4----4--4--4----4--4--|--4----4--4--4------4--||*--2------2--2----2--2--|
--2----2--2--2----2--2--|--2----2--2--2------2--||------------------------|
------------------------|-----------------------||------------------------|


  C/E                    D2                      D2                   
--0------0--0----0----|--0------0--0----0--0--|--0------0--0----0----|
--1------1--1----1----|--3------3--3----3--3--|--3------3--3----3----|
--0------0--0----0----|--2------2--2----2--2--|--2------2--2----2----|
--2------2--2----2----|--0------0--0----0--0--|--0------0--0----0----|
----------------------|-----------------------|----------------------|
----------------------|-----------------------|----------------------|


  Cadd9                   Cadd9                  D2                    
--3------3--3----3--3--|--3------3--3----3----|--0------0--0----0--0--|
--3------3--3----3--3--|--3------3--3----3----|--3------3--3----3--3--|
--0------0--0----0--0--|--0------0--0----0----|--2------2--2----2--2--|
--2------2--2----2--2--|--2------2--2----2----|--0------0--0----0--0--|
--3------3--3----3--3--|--3------3--3----3----|-----------------------|
-----------------------|----------------------|-----------------------|


  D2                        Em7                       Em7                     
--0------0--0----0-----||------------0----0--------|-----------0----0--------|
--3------3--3----3-----||---------3----------3-----|--------3----------3-----|
--2------2--2----2----*||*-----0----------------0--|-----0----------------0--|
--0------0--0----0----*||*--2----------------------|--2----------------------|
-----------------------||--------------------------|-------------------------|
-----------------------||--------------------------|-------------------------|


  D2                        D2                        Cadd9                   
-----------0----0--------|-----------0----0--------|-----------0----0--------|
--------3----------3-----|--------3----------3-----|--------3----------3-----|
-----2----------------0--|-----2----------------0--|-----0----------------0--|
--0----------------------|--0----------------------|-------------------------|
-------------------------|-------------------------|--3----------------------|
-------------------------|-------------------------|-------------------------|


  Cadd9                     D2                        D2                        
-----------0----0--------|-----------0----0--------|-----------0----0---------||
--------3----------3-----|--------3----------3-----|--------3----------3------||
-----0----------------0--|-----2----------------0--|-----2----------------0--*||
-------------------------|--0----------------------|--0----------------------*||
--3----------------------|-------------------------|--------------------------||
-------------------------|-------------------------|--------------------------||


  D2                       Em                     C                    
-----------0-------0----|--0--------0----0--0--|--0--------0----0--0--|
--------3-------3-------|--0--------0----0--0--|--1--------1----1--0--|
-----2------------------|--0--------0----0--0--|--0--------0----0--0--|
--0---------------------|--2--------2----2--0--|--2--------2----2--0--|
------------------------|--2--------2----2-----|--3--------3----3-----|
------------------------|--0--------0----0-----|----------------------|


  Bm7                      Bm7                      Em                   
--2----2--2--2----2--2--|--2----2--2--2------2-2-|--0--------0----0--0--|
--3----3--3--3----3--3--|--3----3--3--3------3-3-|--0--------0----0--0--|
--2----2--2--2----2--2--|--2----2--2--2------2-2-|--0--------0----0--0--|
--4----4--4--4----4--4--|--4----4--4--4------4-4-|--2--------2----2--0--|
--2----2--2--2----2--2--|--2----2--2--2------2-2-|--2--------2----2-----|
------------------------|------------------------|--0--------0----0-----|


  C                      Bm7                      Bm7                   
--0--------0----0--0--|--2----2--2--2----2--2--|--2----2--2--2------2--|
--1--------1----1--0--|--3----3--3--3----3--3--|--3----3--3--3------3--|
--0--------0----0--0--|--2----2--2--2----2--2--|--2----2--2--2------2--|
--2--------2----2--0--|--4----4--4--4----4--4--|--4----4--4--4------4--|
--3--------3----3-----|--2----2--2--2----2--2--|--2----2--2--2------2--|
----------------------|------------------------|-----------------------|


  Em                     C                      Bm7                    
--0--------0----0--0--|--0--------0----0--0--|--2----2--2--2----2--2--|
--0--------0----0--0--|--1--------1----1--0--|--3----3--3--3----3--3--|
--0--------0----0--0--|--0--------0----0--0--|--2----2--2--2----2--2--|
--2--------2----2--0--|--2--------2----2--0--|--4----4--4--4----4--4--|
--2--------2----2-----|--3--------3----3-----|--2----2--2--2----2--2--|
--0--------0----0-----|----------------------|------------------------|


  Bm7                                                                       
--2----2--2--2------2--|-----5h-3h-0--2/-3h-0-----|-----------0---------0--|
--3----3--3--3------3--|--------------------------|--------3---------3-----|
--2----2--2--2------2--|-----------------------0--|--2/-4------------------|
--4----4--4--4------4--|--------------------------|------------------------|
--2----2--2--2------2--|--------------------------|------------------------|
-----------------------|--0-----------------------|------------------------|


                                                                               
-----5h-3h-0--2/-3h-0-----|-----------0---------0--|-----5h-3h-0--2/-3h-0-----|
--------------------------|--------3---------3-----|--------------------------|
-----------------------0--|--2/-4------------------|-----------------------0--|
--------------------------|------------------------|--------------------------|
--------------------------|------------------------|--------------------------|
--0-----------------------|------------------------|--0-----------------------|


                                                                              
-----------0--------0--|--3--2--0--------------0--|--3--2--0--------------0--|
--------3--------------|--------------------3-----|--------------------3-----|
--2/-4-----------------|-----------0--2/-4--------|-----------0--2/-4--------|
-----------------------|--------------------------|--------------------------|
-----------------------|--------------------------|--------------------------|
-----------------------|--0-----------------------|--------------------------|


                                         E                            
--3--2--0--------------0--|-----------0--0--------|------------------|
--------------------3-----|--------3-----0--------|------------------|
-----------0--2/-4--------|--2/-4--------1--------|------------------|
--------------------------|--------------2--------|------------------|
--------------------------|--------------2--------|------------------|
--------------------------|--------------0--------|------------------|

Comments about this tab

No comments/corrections found. Add your own

Complimentary Christian Ringtones
Dadamobile and CGR have teamed up to bring your favorite Christian artists right to your phone. Sign up today and get 10 complementary ringtones!
Tab Country
Did you know CGR has a sister site w/ country guitar tabs? Well we do! Its called Tab Country. It has a great archive with a lot of country tabs.
Rockin Tabs
Are you looking for a site that has rock guitar tabs? Then Rockintabs.com is the place for you. It is a budding site with many rock guitar tabs. Submit your tab today.
Tab Gallery
Tab Gallery has a compilation of christian, rock, and country tabs all in one place. Come visit us.