Guitar Tabs
song title    band name

Join Us Today!

Don't strum alone...
be a part of the largest online Christian music community. Browse thousands of guitar tabs and chat w/ musicians like yourself.


It's Free!

P.O.D. - Satellite

This tab has been rated a 4.00 out of 5 for accuracy. (4 votes)Sorry, but you must be logged in to rate this tab.
Click here to log-in, or you can click here to register.
(Registration is free)

All songs owned by corresponding publishing company. If you make copies of any song on this website, be sure to report your usage to CCLI.
Song  Satellite
Band  P.O.D.
Tabbed  Steven Cannatello	
Tuning  eBGDAE

[Riff 1] Intro
e----------------------------------------------------------
B----------------------------------------------------------
G---777-777-777-777-77-77--333-333-333-333-33-33-----------
D---777-777-777-777-77-77--333-333-333-333-33-33--555-555--
A---555-555-555-555-55-55--111-111-111-111-11-11--555-555--
E-------------------------------------------------333-333--
P.M.__|     __|     _|     __|     __|     _|     __|

e----------------------------------------------------------
B----------------------------------------------------------
G----------------------------------------------------------
D----555-555-55-55-888-8888888----------------------------
A----555-555-55-55-888-8888888----------------------------
E----333-333-33-33-666-6666666----------------------------
P.M. __|     _|     __|

Intro (Part 2)

D5	G5		[Riff 2]	D5	G5

[Riff 2]
e---14-14-17-17-17-17--------------------------------------
B----------------------14-14-14----------------------------

Verse 1 
Play Intro (Part 1) 3x

Bridge

D5  G5

[Riff 2]

D5  G5


Chorus

D5	G5	[Riff 2]

D5	G5	

Verse 2
Wait for guitar and then play [Riff 1] 2x

[Riff 3] 4x
e---------------------------------------------------------
B---------------------------------------------------------
G--7777-9999-10-10-10/12/14-14/15/14/15/14/15/14/15/14/15/
D--xxxx-xxxx-x--x-x--x--x-x-x-x-x-x-x-x-x-x-x--
A--5555-7777-8--8-8/10/12--12/13/12/13/12/13/12/13/12/13/
E---------------------------------------------------------

e----------------------------------------------------------
B----------------------------------------------------------
G-14/15/14/15/14/15----------------------------------------
D-x-x-x-x-x-x----------------------------------------
A12/13/12/13/12/13----------------------------------------
E----------------------------------------------------------

Chorus 2x
D5	G5	[Riff 2]

D5	G5

Play [Riff 1] 2x

Comments about this tab

zvez - 2005-04-28

nice tab very few errors... great song!


Add a comment/correction

Complimentary Christian Ringtones
Dadamobile and CGR have teamed up to bring your favorite Christian artists right to your phone. Sign up today and get 10 complementary ringtones!
Tab Country
Did you know CGR has a sister site w/ country guitar tabs? Well we do! Its called Tab Country. It has a great archive with a lot of country tabs.
Rockin Tabs
Are you looking for a site that has rock guitar tabs? Then Rockintabs.com is the place for you. It is a budding site with many rock guitar tabs. Submit your tab today.
Tab Gallery
Tab Gallery has a compilation of christian, rock, and country tabs all in one place. Come visit us.