Guitar Tabs
song title    band name

Join Us Today!

Don't strum alone...
be a part of the largest online Christian music community. Browse thousands of guitar tabs and chat w/ musicians like yourself.


It's Free!

This tab has been rated a 5.00 out of 5 for accuracy. (1 vote)Sorry, but you must be logged in to rate this tab.
Click here to log-in, or you can click here to register.
(Registration is free)

All songs owned by corresponding publishing company. If you make copies of any song on this website, be sure to report your usage to CCLI.
artist: rod laver
song: black star
tabbed by: demahs

this is the first track on trying not to try

in dropped d tuning

verse:
e-|-----------------------------------------|
B-|-8------8--12--8------8--10--8------8----|
G-|----11------------11------------11-------|
D-|---------------------------------------9-|
A-|-----------------------------------------|
D-|-----------------------------------------|


chorus:
e-|------------------------------------|
B-|----------------------------8-8-8-8-|
G-|----------------------------x-x-x-x-|
D-|-0-00-0--8-88-8--5-55-5--0--5-5-5-5-|
A-|-0-00-0--8-88-8--5-55-5--0----------|
D-|-0-00-0--8-88-8--5-55-5--0----------|

thats the song. just listen to it for timing and order

Comments about this tab

camedman47 - 2005-09-28

someone should tab the song Alex by Rod Laver its a sweet song its on Extreme Days thanks


camedman47 - 2005-09-28

someone should tab the song Alex by Rod Laver its a sweet song its on Extreme Days thanks


Da Flufsta - 2005-10-11

I agree with ypu camedman


Da Flufsta - 2005-10-12

I would come up with a tab for "alex" but I'm not good enough.
Way to go every one who is able create tabs


Add a comment/correction

Complimentary Christian Ringtones
Dadamobile and CGR have teamed up to bring your favorite Christian artists right to your phone. Sign up today and get 10 complementary ringtones!
Tab Country
Did you know CGR has a sister site w/ country guitar tabs? Well we do! Its called Tab Country. It has a great archive with a lot of country tabs.
Rockin Tabs
Are you looking for a site that has rock guitar tabs? Then Rockintabs.com is the place for you. It is a budding site with many rock guitar tabs. Submit your tab today.
Tab Gallery
Tab Gallery has a compilation of christian, rock, and country tabs all in one place. Come visit us.