Guitar Tabs
song title    band name

Join Us Today!

Don't strum alone...
be a part of the largest online Christian music community. Browse thousands of guitar tabs and chat w/ musicians like yourself.


It's Free!

This tab has not yet been rated for accuracy.Sorry, but you must be logged in to rate this tab.
Click here to log-in, or you can click here to register.
(Registration is free)

All songs owned by corresponding publishing company. If you make copies of any song on this website, be sure to report your usage to CCLI.
Side Walk Slam
The Past Remains
(#3) Yesterday's Actions, Today's Regrets
Thomas(SlackeRx66x@yahoo.com)

Main Riff
 [-----------------------------------------------]
 [-----------------------------------------------]
 [-----------------------------------------------]
 [6-6-6-6-6-6-6-6-6-6-6-6-6-6-6-6-3-3-3-3-1-1-1-1]
 [6-6-6-6-6-6-6-6-6-6-6-6-6-6-6-6-3-3-3-3-1-1-1-1]
 [6-6-6-6-6-6-6-6-6-6-6-6-6-6-6-6-3-3-3-3-1-1-1-1]

 [Main Riff]

 G#
 i wish that I could take it back
     C               C#
 the things I did to you last night
 G#
 looking back now on my actions
   C           C#
 I know that I wasn't right


 G#
 wasn't something I just planned
   C              C#
 I didn't mean to turn you blue
 G#
 feelings seem to come and go
       C                          D#*   C#
 don't ask what happened, I don't know
 F  D#         C#
 it seemed too right
 F    D#       C#
 i've lost the fight

 [Main Riff]

 after all is said and done
 let's forget and let's move on
 i'd like to try and start again
 but loves nothing but a dead end

 [Main Riff]

 Lots of reverb echoing..then:
  [-----------------------------------------------------------------]
  [-----------------------------------------------------------------]
  [------6-6-6-5-5--------6-6-6-5-5---------------------------------]
  [6-6-6------------6-6-6------------------6-6-6-5-5-------6-6-6-5-5]
  [----------------------------------4-4-4-----------4-4-4----------]
  [-----------------------------------------------------------------]

 [It Seemed so right..]
 C#  C  A#  G# (3x)  C#  C  A#  D# | C#  C  A#  G#

Comments about this tab

No comments/corrections found. Add your own

Complimentary Christian Ringtones
Dadamobile and CGR have teamed up to bring your favorite Christian artists right to your phone. Sign up today and get 10 complementary ringtones!
Tab Country
Did you know CGR has a sister site w/ country guitar tabs? Well we do! Its called Tab Country. It has a great archive with a lot of country tabs.
Rockin Tabs
Are you looking for a site that has rock guitar tabs? Then Rockintabs.com is the place for you. It is a budding site with many rock guitar tabs. Submit your tab today.
Tab Gallery
Tab Gallery has a compilation of christian, rock, and country tabs all in one place. Come visit us.