Guitar Tabs
song title    band name

Join Us Today!

Don't strum alone...
be a part of the largest online Christian music community. Browse thousands of guitar tabs and chat w/ musicians like yourself.


It's Free!

Rice, Chris - Deep Enough to Dream

This tab has been rated a 4.00 out of 5 for accuracy. (4 votes)Sorry, but you must be logged in to rate this tab.
Click here to log-in, or you can click here to register.
(Registration is free)

All songs owned by corresponding publishing company. If you make copies of any song on this website, be sure to report your usage to CCLI.
Song      : Deep Enough to Dream
Artist    : Chris Rice
Author    : Chris Rice
Copyright : 1997 Clumsy Fly Music / ASCAP
Tabbed by : Doug Parmer

  Intro & Verse
  4/4                                                              2/4
||--0h2-------0----------|-----------0--------|-----3-------------|------||
||o-------3-----3-3---2--|-3-------3---3--2---|-0-------0---3-----|-----o||
||------2----------------|-----2------------2-|-0-0-------0----2--|-(2)--||
||--0---------------2----|---0----------------|-------------------|------||
||o---------------0------|-2------------------|-------------------|-----o||
||-----------------------|-------------2------|-3-----------2-----|------||

 4/4
|-0h2-------0-----------|-----------0---------|-----3------------|
|-------3-----3-3---2---|-3-------3---3---2---|-0-------0---3----|
|-----2---------------0-|-----2---------2---2-|-0-0-------0----2-|
|-0---------------2-----|---0-----------------|------------------|
|---------------0-------|-2-------------------|------------------|
|-----------------------|-------------2-------|-3-----------2----|

 Pre-Chorus
|---------3--------|---------0------|---------0-----------0---|------|
|-0---3-------3----|-3---------3-2--|-3---3-------3---3-------|-3----|
|---0-------0------|-----0----------|---2-------2---2-------2-|------|
|------------------|---2------------|-------------------------|------|
|------------------|-0-----------0--|-2-----------2-----------|-2----|
|-0----------------|----------------|-------------------------|------|

  Chorus
||--3-------3---0h2-------0---|
||o-----3-----3-------3-----3-|
||----2-------------2---------|
||--------------0-------------|
||o-0-------------------------|
||----------------------------|

  1.,2.                          3.
|---------5-------------5----||----------5------------|
|-3---3-------3-----3-------o||--3---3-------3---3----|
|---0-------0-----0-------0--||----0-------0---0------|
|---------------0------------||-----------------------|
|---------------------------o||-----------------------|
|-3--------------------------||--3--------------------|

|-----------0--------|---3-0---0-----------0---|------|
|---------3---3---2--|-0---------0-----------3-|-2----|
|---0h2---------0----|-----------------0-------|------|
|--------------------|---------------2---------|------|
|-------------0------|-------------0-----------|-0----|
|-0------------------|-0-----------------------|------|

 Bridge
|---------0-----------0---|---------0-----------0---|
|-----3-----------3-------|-----3-----------3-------|
|---2-------2---2-------2-|---2-------2---2-------2-|
|-------------------------|-------------------------|
|-2-----------2-----------|-------------------------|
|-------------------------|-2-----------2-----------|

|---------0-----------0---|---------------------0-|
|-------------------------|-----3---3-----2-2h3---|
|---0h2-----0---0h2-----0-|---0-------0-----------|
|-------------------------|-----------------------|
|-------------------------|-0-----------0---------|
|-3-----------3-----------|-----------------------|

|---------0-----------0---|---------0-----------0---|
|-----3-----------3-------|-----3-----------3-------|
|---2-------2---2-------2-|---2-------2---2-------2-|
|-------------------------|-------------------------|
|-2-----------2-----------|-------------------------|
|-------------------------|-2-----------2-----------|

|---------0-----------0---|---------5------------|
|-----------------3-------|-----3-------3---3----|
|---0h2-----2---2-------2-|---0-------0---0---0--|
|-------------------------|----------------------|
|-------------------------|----------------------|
|-0-----------2-----------|-3--------------------|

 Out-Chorus             2/4           4/4                3x
|-----------0--------||------------0-|-------------------||
|-0-------3---3---2--||o-0-------3---|-3-------3---0h2--o||
|---0h2---------0----||----0h2-------|---0h2-----2-------||
|--------------------||--------------|-------------------||
|-------------0------||o-------------|-0-----------0----o||
|-0------------------||--0-----------|-------------------||

   Outro
||----------0-----------0----||
||o-3---3-------3---3-------o||
||----2-------2---2-------2--||
||---------------------------||
||o-2-----------2-----------o||
||---------------------------||

Song order -
  Intro, [Verse, Pre-Chorus, Chorus]2x, Bridge, Chorus 2x, Out-Chorus, Outro
Playing notes - You will obviously need to listen to this song a lot to play 
  this correctly.  4/4 and 2/4 indicate whether there's 4 or 2 beats 
  respectively in that measure.  The double bar with the circles on the B and A 
  strings are repeat signs.  The 1.,2. in the chorus means to take that 
  measure the first and second times you come to it, then take the third 
  measure (with the 3.) instead of the second measure on the final time. 
  Only take the repeat for the verse the first time you play it.  A note with 
  parenthesis is tied over a barline.  Repeat the outro until you feel like 
  stopping.
I've added bass notes to the tab even if the guitar didn't necessarily play
  them.  I didn't tab out slight variations played in the chorus different
  times as that would've taken up too much room.
E-mail comments, questions, or corrections to xkcerman@yahoo.com.  I'd be happy 
  to send you the MIDI or Power Tab files for this song if you want.  Enjoy!

********************************************************************************
*             Generated using Power Tab Editor by Brad Larsen                  *
*                    http://powertab.guitarnetwork.org                         *
********************************************************************************

Comments about this tab

honestfool84 - 2004-05-03

i think it would sound great with a capo on the third fret!

God bless


kempm - 2006-01-19

Please send me the Midi file to cheryl.kemp@shaw.ca

Thanks


dgatrell - 2006-02-01

I would really appreciate the midi file for this song.
Thanks & God Bless! dgatrell@comcast.net


I<3MyChurch_05 - 2006-08-16

Thanks for the tab!

Hey, could someone get the tab/chords to "When Did You Fall'? Because I would be eternally greatful for that!

Thanks again!

-Miranda


what_ever - 2006-08-20

I agree - capo 3rd. Great tab!


Add a comment/correction

Complimentary Christian Ringtones
Dadamobile and CGR have teamed up to bring your favorite Christian artists right to your phone. Sign up today and get 10 complementary ringtones!
Tab Country
Did you know CGR has a sister site w/ country guitar tabs? Well we do! Its called Tab Country. It has a great archive with a lot of country tabs.
Rockin Tabs
Are you looking for a site that has rock guitar tabs? Then Rockintabs.com is the place for you. It is a budding site with many rock guitar tabs. Submit your tab today.
Tab Gallery
Tab Gallery has a compilation of christian, rock, and country tabs all in one place. Come visit us.