Guitar Tabs
song title    band name

Join Us Today!

Don't strum alone...
be a part of the largest online Christian music community. Browse thousands of guitar tabs and chat w/ musicians like yourself.


It's Free!

This tab has not yet been rated for accuracy.Sorry, but you must be logged in to rate this tab.
Click here to log-in, or you can click here to register.
(Registration is free)

All songs owned by corresponding publishing company. If you make copies of any song on this website, be sure to report your usage to CCLI.
Song:		They'll Never Take Me Alive
Artist:		Squad 5-O
Written By:	Squad 5-O
Album:		Bombs Over Broadway
Copyright:	 2000 Thirsty Moon River Publishing (ASCAP) 
Tabbed By:	Ben Forrester,  project_86fan1982@hotmail.com
=============================================================

The lead part is not exact but I thought that it was close and it seems
like it works

E-------------------------------------------------------------------
A-------------------------------------------------------------------
D-------------------------------------------------------------------
G--14-14---17-14-14--17-14-14---17-14-12---12-12-14-12----12-12-----
B---------------------------------------------------------------14--
E-------------------------------------------------------------------

E-------------------------------------------------------------------
A-------------------------------------------------------------------
D-------------------------------------------------------------------
G----------19--17--14----19--17--14----9--9--9--12------------------
B--14--14-----------------------------------------------------------
E-------------------------------------------------------------------
      (Sorry if I missed anything)

Verses:    (pm)= palm mute

I walk the line...   A(pm), G(pm), D(pm), D, C, A  { x2}

Baby come on...   A, G, D, D, C, A   {x2} 	 

So raise your fist...   G, D, A, C, D, A, G, D, A, C, D, D, C, A

Conviction lies in...   A(pm), G(pm), D(pm), D, C, A  {x2}

BRIDGE:   
    A, D, C, G, C, D, A  {x4}

Verses:    

Well it’s a...   A, G, D, D, C, A  {x4} 

BRIDGE 2:   
    C, D, D, C, A (Then play the lead part from the beginning again)

ENDING:
They’ll never take...   A, D, G , A (Just play those chords until the song
ends)   

Comments about this tab

No comments/corrections found. Add your own

Complimentary Christian Ringtones
Dadamobile and CGR have teamed up to bring your favorite Christian artists right to your phone. Sign up today and get 10 complementary ringtones!
Tab Country
Did you know CGR has a sister site w/ country guitar tabs? Well we do! Its called Tab Country. It has a great archive with a lot of country tabs.
Rockin Tabs
Are you looking for a site that has rock guitar tabs? Then Rockintabs.com is the place for you. It is a budding site with many rock guitar tabs. Submit your tab today.
Tab Gallery
Tab Gallery has a compilation of christian, rock, and country tabs all in one place. Come visit us.