Guitar Tabs
song title    band name

Join Us Today!

Don't strum alone...
be a part of the largest online Christian music community. Browse thousands of guitar tabs and chat w/ musicians like yourself.


It's Free!

Chapman, Steven Curtis - Children Of The Burning Heart

This tab has been rated a 4.00 out of 5 for accuracy. (1 vote)Sorry, but you must be logged in to rate this tab.
Click here to log-in, or you can click here to register.
(Registration is free)

All songs owned by corresponding publishing company. If you make copies of any song on this website, be sure to report your usage to CCLI.
"Children of the Burning Heart" 
Signs of Life
Steven Curtis Chapman
Tabbed by Matt Wright (hottie6781@hotmail.com)

This a great song with a cool minor 7 key. It's my favorite yet. These are
power chords meant mainly for electric, but you can substitute them for
regular chords or just play the way it's written on the acoustic.

Capo one (chords relative to capo) 

Intro riff:(with palm muting) 
e------------------------------------------------|| 
b------------------------------------------------|| 
g-7-7-7-x-x-x-x-x-x-x-x-x-7-7-7-x-x-x---||repeat 
d-7-7-7-6-6-5-5-5-5-5-6-6-7-7-7-6-6-5-||
a-5-5-5-5-5-5-5-5-5-5-5-5-5-5-5-5-5-5-||
E-----------------------------------------------|| 

D5----F5#7/D5----D5sus-----D5-------F5#7/D5---D5sus---D5-

Bm5---F#m5-------Bm5-------F#m5-----G5--------A2---------

D5----A5---------Bm5-------F#m5-----D5--------G5------Em-

D5----A5---------Bm5-------A2-------G5--------Em---------

Bmaj7----------C5-----------------------Intro riff

For the second verse and the second refrain, it's the samee. But the
interlude is where it gets tricky:

D5................D5............G5 Bm5 A2 

For the electric guitar, this is what it plays when it comes in on the second 
part of the solo (guitar two just plays the samee as above during this): 
e-----3-2--------------3-2-----------3-2-------------3-2-3/5- 
b---1--------1/3-----1-----1-------1-------1/3-----1------- 
g---------2------------------2-----------2------------------- 
d-0----------------0-------------0---------------0----------- 
a------------------------------------------------------------ 
E-------------------------------------------------------------- 

Then: Bb5 C5 D5 Eb5 

Then chorus again. The rest is easy. That's it! If you have any questions email 
me at hottie6781@hotmail.com. God bless! 
Chords: D5: x577xx F5#7/D5: x56xxx D5sus: x55xxx Bm5: x244xx F#m5: 244xxx G5: 
355xxx A2: x022xx A5: 577xxx Em: 022xxx Bmaj7: 1100xx C5: x355xx Bb5: x133xx 
Eb5: x688xx

Comments about this tab

No comments/corrections found. Add your own

Complimentary Christian Ringtones
Dadamobile and CGR have teamed up to bring your favorite Christian artists right to your phone. Sign up today and get 10 complementary ringtones!
Tab Country
Did you know CGR has a sister site w/ country guitar tabs? Well we do! Its called Tab Country. It has a great archive with a lot of country tabs.
Rockin Tabs
Are you looking for a site that has rock guitar tabs? Then Rockintabs.com is the place for you. It is a budding site with many rock guitar tabs. Submit your tab today.
Tab Gallery
Tab Gallery has a compilation of christian, rock, and country tabs all in one place. Come visit us.