Guitar Tabs
song title    band name

Join Us Today!

Don't strum alone...
be a part of the largest online Christian music community. Browse thousands of guitar tabs and chat w/ musicians like yourself.


It's Free!

DC Talk - Fearless

This tab has been rated a 4.33 out of 5 for accuracy. (3 votes)Sorry, but you must be logged in to rate this tab.
Click here to log-in, or you can click here to register.
(Registration is free)

All songs owned by corresponding publishing company. If you make copies of any song on this website, be sure to report your usage to CCLI.
Author/Artist: Dc Talk
Title: Fearless
Album: Supernatural
Transcribed by: Bryan Jastrzembski
Email: Empty_hed_loser@yahoo.com

-0---0--0-0-----------0-0--x-x-0-0--2-|||-3-|-3-|-3-|--0--0--3----------------
-1---1--1-1-----------1-1--x-x-1-1--3-|||-1-|-1-|-1-|--1--1--3----------------
-0---0--2-1--0-0-0-0--0-0--x-x-2-2--2-|||-2-|-0-|-2-|--0--0--0----------------
-2---3--2-2--0-0-0-0--2-3--x-x-2-2--0-|||-3-|-2-|-0-|--2--2--0----------------
-3---3-------2-2-2-2--3-3-------------|||-x-|-0-|---|--3--3--2----------------
-------------3-3-3-3------------------|||-1-|-x-|---|--3--3--3----------------
W/Flangler                              Strummed in pre chorus

-|||-1-|-1-|-0-|-4-|||--------|||-----3-------3-1-----3------3-----|||--------
-|||-1-|-3-|-1-|-4-|||--------|||---1-------1-------1------1-------|||--------
-|||-2-|-3-|-0-|-5-|||--------|||-2-------3-------0------0-----4vvv|||--------
-|||-3-|-3-|-2-|-6-|||--------|||----------------------------------|||--------
-|||-3-|-1-|-3-|-6-|||--------|||----------------------------------|||--------
-|||-1-|-1-|-0-|-4-|||--------|||----------------------------------|||--------
strummed in chorus w/riff B     Riff B W/flangler effect

-|--------------------|||-----------------------------------------------------
-|---5---6-5-----8---7|||-----------------------------------------------------
-|--------------------|||-----------------12----------------------------------
-|-5---5-----5/7---7--|||--------------14-------------------------------------
-|--------------------|||-----------------------------------------------------
-|--------------------|||-----------------------------------------------------
riff after chorus       (in verse2)

-------------------------------------------------------------------|||--------
-12-------13-------------------------------------------------------|||--------
--------------------------12-------------------------5-------------|||--------
-------------------------------------------------------------------|||--------
-------------------------------------------------------------------|||--------
-------------------------------------------------------------------|||--------


-----------------------------------------------------------------18-----------
-18b-p16----16v----16-18b-p16----16v----16-18b-p16----16v----16----18b-18----
----------17-----17------------17-----17------------17-----17-----------------
------------------------------------------------------------------------------
------------------------------------------------------------------------------
------------------------------------------------------------------------------
SOLO AT THE END(took me 3 weeks to get and may not all be right)

------------------------------------------------------------------------------
-16---------------------------------------------------------------------------
----17-17v--15-17-------------------------------------------------------------
------------------17\15-13----13h14----13-14-13-14-13-14-13-14-13-14vvvv------
---------------------------15-------15----------------------------------------
------------------------------------------------------------------------------

---------------------------------------------------------------------13b-p11b-
-----------------------------8---------------8----------8---------------------
----8v-8-----------8-10-8-10---8vvv-110-8-10---8----------10-8v---------------
-8------10-8-8h10-------------------------------8/10-8---------10-8----------
------------------------------------------------------------------------------
------------------------------------------------------------------------------

--------------------------13b-p11-----------11--20b-20b--18vv-18vvvv-13b-13---
-12v-13p11-13v-13p11-13v---------13v-13p11-----------------------------------
------------------------------------------------------------------------------
------------------------------------------------------------------------------
------------------------------------------------------------------------------
------------------------------------------------------------------------------

-11b--------------------------------------------------------------------------
-----13-11----11vvvv------------11--------------------------------------------
-----------12--------8vvvv---------8b---------8v------------------------------
---------------------------10-8-------10-8-10----10-8-10h12-10-12-12b-10------
-------------------------------------------------------------------------12---
------------------------------------------------------------------------------

---------------11b-8h11p8------8------11b-8h11p8------11-8h11p8------11b------
--------------------------11p8---11-8------------11-8-----------11-8----------
------------------------------------------------------------------------------
------------------------------------------------------------------------------
-10-8-10-8b-------------------------------------------------------------------
------------10----------------------------------------------------------------

-8h11p8------11b-8h11p8----------8---------------------8h11p8------13b-13b----
--------11-8------------11-8----------------------------------11-8------------
-----------------------------10b---10-8-10-10b-8b-----------------------------
--------------------------------------------------10-8------------------------
------------------------------------------------------------------------------
------------------------------------------------------------------------------

-13b-13b-13b-13b-13b-13b-13b-13b-13b-13bb-11b----------13b-13b----------------
----------------------------------------------13-11---------------13-13-11vv--
----------------------------------------------------12---------12-------------
------------------------------------------------------------------------------
------------------------------------------------------------------------------
------------------------------------------------------------------------------

there’s more to the solo but i cant get it down because the music starts to
fade and i can’t really make out what ther doing there for some reason. There
it is ENJOY!!

Comments about this tab

Philisyy4u - 2005-08-14

Intro sounds great thanks and good job!!!


Philisyy4u - 2005-08-14

the whole thing sounds good. 5.0


Add a comment/correction

Complimentary Christian Ringtones
Dadamobile and CGR have teamed up to bring your favorite Christian artists right to your phone. Sign up today and get 10 complementary ringtones!
Tab Country
Did you know CGR has a sister site w/ country guitar tabs? Well we do! Its called Tab Country. It has a great archive with a lot of country tabs.
Rockin Tabs
Are you looking for a site that has rock guitar tabs? Then Rockintabs.com is the place for you. It is a budding site with many rock guitar tabs. Submit your tab today.
Tab Gallery
Tab Gallery has a compilation of christian, rock, and country tabs all in one place. Come visit us.