Guitar Tabs
song title    band name

Join Us Today!

Don't strum alone...
be a part of the largest online Christian music community. Browse thousands of guitar tabs and chat w/ musicians like yourself.


It's Free!

Zao - Surrounds Me

This tab has not yet been rated for accuracy.Sorry, but you must be logged in to rate this tab.
Click here to log-in, or you can click here to register.
(Registration is free)

All songs owned by corresponding publishing company. If you make copies of any song on this website, be sure to report your usage to CCLI.
Song:Surrounds Me
Artist:zao
Album:The Splinter Shards...
1996 T&N Records
tabbed by:Matt Iveson
(mxpx.punk@juno.com)

zao rules.

standard tuning
()=palm mute 
=tremelo picking
h=hammer on
intro:
listen for rythm on all parts
e-----------------------------------------------------
b----9--(9)-------------------------------------------
g---12-(12)...----------------------------------------
d-----------------------------------------------------
a----------------2-(2)-(2)-2...-3-(3)-3...2-(2)...3...
E-----------------------------------------------------

1st guitar:
e-----------------------------------------------------
b-----------------------------------------------------
g-----------------------------------------------------
d---2---(2)---2---------------------------------------
a---2---(2)---2-2-(2)-(2)-2-2h3-----------------------
E---0---(0)---0---------------------------------------

2nd guitar:
e-----------------------------------------------------
b-----------------------------------------------------
g-----------------------------------------------------
d-----------------------------------------------------
a-----------------------------------------------------
E---7~8~7~8~7~8~7~8~7~8~7~8~7~8~----------------------

e-----------------------------------------------------
b---------------------10------------------------------
g---9--10-10---9--10--10------------------------------
d---9--10-10---9--10---8------------------------------
a---7---8------7---8---8------------------------------
E-----------------------------------------------------

e-----------------------------------------------------
b-----------------------------------------------------
g--9--10-10---9--10--(10)-----------------------------
d--9--10-10---9--10--(10)-----------------------------
a--7---8------7---8---(8)-----------------------------
E-----------------------------------------------------

Sorry, I don’t know the wah part, I’m still working on
that. just play an E chord for the rythm part.
e-----------------------------------------------------
b-----------------------------------------------------
g-----------------------------------------------------
d---9---7---5---4---5---2...---2----------------------
a---9---7---5---4---5---2...---2--pickscrape----------
E---7---5---3---2---3---0...---0----------------------

e-----------------------------------------------------
b-----------------------------------------------------
g--------9-------10-----------------------------------
d--------7-------10-----------------------------------
a--------7--------8-----------------------------------
E---(0)------(0)--------------------------------------

e-----------------------------------------------------
b-----------------------------------------------------
g-----------------------------------------------------
d---------2h3---2x’s----------------------------------
a---3-2-----------------------------------------------
E-------3---------------------------------------------

e-----------------------------------------------------
b-----------------------------------------------------
g-----------------------------------------------------
d-------2h3...then add E chord palm muted with it-----
a---2-3-----------------------------------------------
E-----------------------------------------------------

e-----------------------------------------------------
b-----------------------------------------------------
g---4---5---4---5-------------------------------------
d---4---5---4---5-------------------------------------
a---2---3---2---3-------------------------------------
E-----------------------------------------------------

e-----------------------------------------------------
b-----------------------------------------------------
g---(4)-4-(4)-3-(4)-4-(4)-5.....----------------------
d-----------------------------------------------------
a-----------------------------------------------------
E-----------------------------------------------------

whew. all done.
God Bless.

Comments about this tab

No comments/corrections found. Add your own

Complimentary Christian Ringtones
Dadamobile and CGR have teamed up to bring your favorite Christian artists right to your phone. Sign up today and get 10 complementary ringtones!
Tab Country
Did you know CGR has a sister site w/ country guitar tabs? Well we do! Its called Tab Country. It has a great archive with a lot of country tabs.
Rockin Tabs
Are you looking for a site that has rock guitar tabs? Then Rockintabs.com is the place for you. It is a budding site with many rock guitar tabs. Submit your tab today.
Tab Gallery
Tab Gallery has a compilation of christian, rock, and country tabs all in one place. Come visit us.