Guitar Tabs
song title    band name

Join Us Today!

Don't strum alone...
be a part of the largest online Christian music community. Browse thousands of guitar tabs and chat w/ musicians like yourself.


It's Free!

This tab has not yet been rated for accuracy.Sorry, but you must be logged in to rate this tab.
Click here to log-in, or you can click here to register.
(Registration is free)

All songs owned by corresponding publishing company. If you make copies of any song on this website, be sure to report your usage to CCLI.
Artist: Dogwood
Album: Good Ol’ Daze
Song: The Grand Avenue Library
Copyright: 1996 Rescue Records
Transcribed by: Ben Morris

Intro/Verse:

Bass 1x Then 3x Band
e|---------------------------------------------|
B|---------------------------------------------|
G|---------------------------------------------|
D|-7-5-7-5--5-5-----5--5-5---------------------|
A|-------------5-5-5------7-5-7-5--3-5-3-0-----|
E|---------------------------------------------|

Chorus
4x
e|---------------------------------------------|
B|---------------------------------------------|
G|---------------------------------------------|
D|---------------------------------------------|
A|-0-0-2-2-3---0-0-2-2-3-5-3-2-0---------------|
E|---------------------------------------------|
 
4x 
e|---------------------------------------------|
B|---------------------------------------------|
G|---------------------------------------------|
D|---------------------------------------------|
A|-0-0-0-0-2-2-2-2-3-3-3-3-2-2-2-2-------------|
E|---------------------------------------------| 

Repeat chorus then:
2x
e|---------------------------------------------|
B|---------------------------------------------|
G|---------------------------------------------|
D|---------------------------------------------|
A|-0-0-2-2-3---0-0-2-2-3-5-3-2-0---------------|
E|---------------------------------------------|

Lyrics:
Why should I live by the golden rule?
When you put me down it makes you look cool
Some friend you are talking bad about me
While I take your side and help you constantly

The flesh is willing but the spirit is weak
How come I can’t listen when God speaks
I told you what’s up the choice was yours
I offered you help you slammed the door

You chose the world
instead of Christ
Now you have fun
All of the time
I pray for you
All night and day
But I’m still here
You’ve gone away

Comments about this tab

No comments/corrections found. Add your own

Complimentary Christian Ringtones
Dadamobile and CGR have teamed up to bring your favorite Christian artists right to your phone. Sign up today and get 10 complementary ringtones!
Tab Country
Did you know CGR has a sister site w/ country guitar tabs? Well we do! Its called Tab Country. It has a great archive with a lot of country tabs.
Rockin Tabs
Are you looking for a site that has rock guitar tabs? Then Rockintabs.com is the place for you. It is a budding site with many rock guitar tabs. Submit your tab today.
Tab Gallery
Tab Gallery has a compilation of christian, rock, and country tabs all in one place. Come visit us.