Guitar Tabs
song title    band name

Join Us Today!

Don't strum alone...
be a part of the largest online Christian music community. Browse thousands of guitar tabs and chat w/ musicians like yourself.


It's Free!

Barnard, Shane - Breath of God (live)

This tab has been rated a 5.00 out of 5 for accuracy. (2 votes)Sorry, but you must be logged in to rate this tab.
Click here to log-in, or you can click here to register.
(Registration is free)

All songs owned by corresponding publishing company. If you make copies of any song on this website, be sure to report your usage to CCLI.
Author/Artist: Shane Barnard
Title: Breath of God (live)
Transcribed by: Taki Browne-Kondo
Email: taki@mail.utexas.edu

This is the first tab I've ever done.  I hope it blesses you and that it
doesn't stink.  What you're looking at is the way Shane Barnard is playing
this song these days at his shows.  It's a little juiced up from the version
he had on the Rock's Won't Cry CD.  I've only written it for Shane B's guitar,
which is capoed at 4.  All tab is relative to the capo.  If you'd like Shane
Everett's part, you can figure it out on your own.  He's at capo 1 and just
plays chords.  It's pretty easy.

Solo:

------------------------------------------------------------------------------
-----------------------2-4-5--5-5-5-5-5-5/7--7-7-7-7-7-7/9--9-(hit this note a
-----------------1-2-4----------------------------------------------------lot)
-----------1-2-4--------------------------------------------------------------
-----0-2-4--------------------------------------------------------------------
-2-4--------------------------------------------------------------------------

------------------------------------------------------------------------------
9/7-7-7-7/5-5-5-5/4-4-4-4-4-4-4h5p4-(keep hammering and pulling)--------------
------------------------------------------------------------------------------
------------------------------------------------------------------------------
------------------------------------------------------------------------------
------------------------------------------------------------------------------

Verse 1:
C#m7 A B (repeated)
A life you cannot define
A purpose that's benign
They need to see and believe
Be led to the rugged tree 

Pre-chorus:
A  B (repeated)
The one on which He cried not for His pain but for our debt
The very same tree that He conquered death
It was an unfair deal on the part of Christ
He got my sin I got eternal life 

Chorus:
E    B                A
Make me the breath of God
         B
And I'll show them the One that means the most to me
E       B               A
They'll see the face of Love.
   B
Be touched by the very One who died upon the tree

Verse 2:
C#m7 A B (repeated)
Small talk is a better choice
A way to avoid your voice
I need to feel the dust on knees
And lead them to the tree

Bridge:
A B (repeated)
Will you follow Me, lead them to the tree 
Can't you just believe, will you take the knee for eternity! 


Chords:

C#m7   B     A    E
-0-   -0-   -0-   -0-
-0-   -0-   -0-   -0-
-1-   -4-   -2-   -1- or -4-
-2-   -4-   -2-   -2-
-4-   -2-   -0-   -2-
-x-   -x-   -x-   -0-

Comments about this tab

No comments/corrections found. Add your own

Complimentary Christian Ringtones
Dadamobile and CGR have teamed up to bring your favorite Christian artists right to your phone. Sign up today and get 10 complementary ringtones!
Tab Country
Did you know CGR has a sister site w/ country guitar tabs? Well we do! Its called Tab Country. It has a great archive with a lot of country tabs.
Rockin Tabs
Are you looking for a site that has rock guitar tabs? Then Rockintabs.com is the place for you. It is a budding site with many rock guitar tabs. Submit your tab today.
Tab Gallery
Tab Gallery has a compilation of christian, rock, and country tabs all in one place. Come visit us.