Guitar Tabs
song title    band name

Join Us Today!

Don't strum alone...
be a part of the largest online Christian music community. Browse thousands of guitar tabs and chat w/ musicians like yourself.


It's Free!

This tab has not yet been rated for accuracy.Sorry, but you must be logged in to rate this tab.
Click here to log-in, or you can click here to register.
(Registration is free)

All songs owned by corresponding publishing company. If you make copies of any song on this website, be sure to report your usage to CCLI.
Just Remember by Radial Angel
From Radial Angel’s self titled release
Tabbed by Jeremy Dolezel and Jared Taber
2000 Radial Angel/Thin King Entertainment/ASCAP
FOR PERSONAL USE ONLY

Intro
E-10---10-10-10-10-|-10---10-10-10-10-|-10---10-10-10-10-|-10---10-10-10-10-----
B-12---12-12-12-12-|-12---12-12-12-12-|-12---12-12-12-12-|-12---12-12-12-12-----
G-0----0--0--0--0--|-11---11-11-11-11-|-10---10-10-10-10-|-11---11-11-11-11-----
D------------------|------------------|------------------|----------------------
A------------------|------------------|------------------|----------------------
E------------------|------------------|------------------|----------------------

Verse
D-A-G (guitar 1)
(guitar 2)
E------------------|-----------------|------------------|-----------------------
B------------------|-----------------|------------------|-----------------------
G-11---------------|-9---------------|-7----------------|--------6-7-6-7/-------
D------------------|-----------------|------------------|-----------------------
A------------------|-----------------|------------------|-----------------------
E------------------|-----------------|------------------|-----------------------

E------------------|-----------------|------------------|-----------------------
B------------------|-----------------|------------------|-----------------------
G-11---11-11hb-11--|-9-----9/7-6-----|-7----------------|-----------------------
D------------------|-----------------|-----------7---7--|---------7-9-7/--------
A------------------|-----------------|------------------|-----------------------
E------------------|-----------------|------------------|-----------------------

E------------------|-----------------|------------------|-----------------------
B------------------|-----------------|------------------|-----------------------
G-11---11-11hb-11--|-9-----9/7-6-----|---7---7---7---7--|-7---------------------
D------------------|-----------------|------------------|-----------------------
A------------------|-----------------|------------------|-----------------------
E------------------|-----------------|------------------|-----------------------

Chorus (guitars 1 & 2)
E------------------|-----------------|------------------|-----------------------
B------------------|-----------------|------------------|-----------------------
G-7----7-7-7-------|-----------------|------------------|-----------------------
D-7----7-7-7-------|-7----7-7-7------|-5----5-5-5-------|---5-5---5-5-5-5-------
A-5----5-5-5-------|-7----7-7-7------|-5----5-5-5-------|---5-5---5-5-5-5-------
E------------------|-5----5-5-5------|-3----3-3-3-------|---3-3---3-3-3-3-------
(guitar 2- 2nd part of the chorus)
E------------------|-----------------|------------------|-----------------------
B------------------|-----------------|---------5/----12-|---12-12---12-12-12-12-
G-7----7-7-7-------|-----------------|---------5/----12-|---12-12---12-12-12-12-
D-7----7-7-7-------|-7----7-7-7------|-5-------5/----12-|---12-12---12-12-12-12-
A-5----5-5-5-------|-7----7-7-7------|-5-------------10-|---10-10---10-10-10-10-
E------------------|-5----5-5-5------|-3----------------|-----------------------

Solo (guitar 1)
E------------------|-----------------|------------------|-----------------------
B------------------|-----------------|------------------|-----------------------
G-7---7---6b-6-----|----------6b-6---|------------------|-----------------------
D-7---7------------|-7---7-----------|-5-5-5---5---5----|---5---5---------------
A-5---5------------|-7---7-----------|-5-5-5---5---5----|---5---5-------3-5-3---
E------------------|-5---5-----------|-3-3-3---3---3----|---3---3---3-5---------

(guitar 2)
E-12-14-12-14-14-14|------------------|-----------------|-----------------------
B------------------|12-14-12-14-14--12|14b-14-12-14-12--|-12-12-12-12-12-12-----
G------------------|------------------|-----------------|-14-14-14-14-14-14-----
D------------------|------------------|-----------------|-----------------------
A------------------|------------------|-----------------|-----------------------
E------------------|------------------|-----------------|-----------------------

E-12-14-12-14-14-12|--------------------|-----------------------|--------------
B------------------|12-14-12-14-14-14-12|12-14-12-14-14-14-12---|12-------------
G------------------|--------------------|---------------------14|--14-12-14-12--
D------------------|--------------------|-----------------------|-------------14
A------------------|--------------------|-----------------------|---------------
E------------------|--------------------|-----------------------|---------------

Bridge/verse 3
Palm mute D-A-G (guitar 1)

(guitar 2)
E------------------|------------------|------------------|-----------------------
B------------------|------------------|------------------|-----------------------
G------------------|------------------|------------------|----------------7/-----
D-12---------------|-7----------------|-5----------------|-----------------------
A------------------|------------------|------------------|-----------------------
E------------------|------------------|------------------|-----------------------

E------------------|------------------|------------------|-----------------------
B------------------|------------------|------------------|-----------------------
G-11---11-11b-11---|-9------9/7-6-----|-7----------------|-----------------------
D------------------|------------------|----------7---7---|----------7-9-7/11-----
A------------------|------------------|------------------|-----------------------
E------------------|------------------|------------------|-----------------------

Outro
(guitar 1 just repeats the chorus)

(guitar 2)
E------------------|------------------|------------------|-----------------------
B----------5-------|-----------5------|---------5/----12-|-12-12---12-12-12-12---
G-7---7----7b------|-----------7b-----|---------5/----12-|-12-12---12-12-12-12---
D-7---7------------|-7---7------------|-5---5---5/----12-|-12-12---12-12-12-12---
A-5---5------------|-7---7------------|-5---5---------10-|-10-10---10-10-10-10---
E------------------|-5---5------------|-3---3------------|-----------------------

(lead overdub in the outro- to get the timing on this part listen to the song)
E------------------|------------------|--------------------|
B------17-15-14----|-12------------13-|12-12-12-15-12-12-12|
G------------------|-14b-----------12-|---12-12-12----12-12|
D------------------|------------------|--------------------|
A------------------|------------------|--------------------|
E------------------|------------------|--------------------|
/= slide
b= bend

This is 100% correct!!!  If you would like any more songs by Radial Angel
please send an email to band@RadialAngel.com

Comments about this tab

No comments/corrections found. Add your own

Complimentary Christian Ringtones
Dadamobile and CGR have teamed up to bring your favorite Christian artists right to your phone. Sign up today and get 10 complementary ringtones!
Tab Country
Did you know CGR has a sister site w/ country guitar tabs? Well we do! Its called Tab Country. It has a great archive with a lot of country tabs.
Rockin Tabs
Are you looking for a site that has rock guitar tabs? Then Rockintabs.com is the place for you. It is a budding site with many rock guitar tabs. Submit your tab today.
Tab Gallery
Tab Gallery has a compilation of christian, rock, and country tabs all in one place. Come visit us.