Guitar Tabs
song title    band name

Join Us Today!

Don't strum alone...
be a part of the largest online Christian music community. Browse thousands of guitar tabs and chat w/ musicians like yourself.


It's Free!

Thousand Foot Krutch - When In Doubt

This tab has been rated a 2.67 out of 5 for accuracy. (3 votes)Sorry, but you must be logged in to rate this tab.
Click here to log-in, or you can click here to register.
(Registration is free)

All songs owned by corresponding publishing company. If you make copies of any song on this website, be sure to report your usage to CCLI.
Band - Thousand Foot Krutch
Song - When in Doubt

Copyright - 2000 DJD Entertainment

after having a look at the previous tab on this website,
i realized that there were some small errors and/or ommissions.
i corrected and added some stuff to it, incl. a more accurate
intro.
there are some mistakes in mine also, possibly typos,
but the main thing is the rythm in the chorus is off.

Standard Tuning

Intro
e----------------------------------|
B---------3-------------------3----|
G-----2-------2-------------2---2--|
D-0-0---0---0---0------2-----------|
A------------------0-0---0-0-------|
E----------------------------------|
not last time                           last time
e-----------------------------------|----------------------
B-----------------------------------|----------------------
G---------3-------------------------|----------------------
D-----3-------3---------------------|-5-5-5-5-5-5-5-5---5-5
A-2-2---2---2---2------5-----5--5\7-|-5-5-5-5-5-5-5-5---5-5
E------------------3-3---3-3----3\5-|-3-3-3-3-3-3-3-3---3-3
5 or 6x with slight variations after the first time

Fun Part, sounds somewhat like Blink 182
e-----------------------------------------------
B-----------------------------------------------
G-----------------------------------------------
D--7-7-5-5-4---7-7-5-5-4---7-7-5-5-4---0-0-4-4-5
A-----------------------------------------------
E-----------------------------------------------
Rhythm Guitar:
e-----------------------------------------------------------
B-----------------------------------------------------------
G--7-7-7-7-7-7----------------------------------------------
D--7-7-7-7-7-7--7-7-7-7-7-7-7--9-9-9-9-9-9-9---5-5-5-5-5-5-5
A--5-5-5-5-5-5--7-7-7-7-7-7-7--9-9-9-9-9-9-9---5-5-5-5-5-5-5
E---------------5-5-5-5-5-5-5--7-7-7-7-7-7-7---3-3-3-3-3-3-3
2x

Verse
e------------------------------------
B------------------------------------
G--7-x-x-7---------------------------
D--7-x-x-7--7-x-x-7--9-x-x-9--5-x-x-5
A--5-x-x-5--7-x-x-7--9-x-x-9--5-x-x-5
E-----------5-x-x-5--7-x-x-7--3-x-x-3
2x


e--------------------------------------------------------------------
B--------------------------------------------------------------------
G--7-7-7-7-7-7-7-7---------------------------------------------------
D--7-7-7-7-7-7-7-7--7-7-7-7-7-7-7-7--9-9-9-9-9-9-9-9--5-5-5-5-5-5-5-5
A--5-5-5-5-5-5-5-5--7-7-7-7-7-7-7-7--9-9-9-9-9-9-9-9--5-5-5-5-5-5-5-5
E-------------------5-5-5-5-5-5-5-5--7-7-7-7-7-7-7-7--3-3-3-3-3-3-3-3
2x

Chorus
                                           1st time only
e------------------------------------------|----------
B------------------------------------------|----------
G--7-7-x-x-7-7-----------------------------|----------
D--7-7-x-x-7-7--7-7-x-x-7-7--9-9-x-x-9-9--5|---------5
A--5-5-x-x-5-5--7-7-x-x-7-7--9-9-x-x-9-9--5|---------5
E---------------5-5-x-x-5-5--7-7-x-x-7-7--3|---------3
2x

Blink 182 thing                                  2nd time only
e-----------------------------------------------|-------------
B-----------------------------------------------|-------------
G-----------------------------------------------|-3----------3
D--7-7-5-5-4---7-7-5-5-4---7-7-5-5-4---0-0-4-4-5|-3----------3
A-----------------------------------------------|-5----------5
E-----------------------------------------------|-------------
2X

Solo:   (w/ dist.)
e-----------------------------------|-------------|----------------
B-----------------------------------|-------------|----------------
G-----------------------------------|-------------|----------------
D--7-7-7-7-7-7-7-7-7-7-7-7-7-7-7-7-7|------5-5-4-5|-7-7-7-7-7-7-7-7
A-----------------------------------|-------------|----------------
E-----------------------------------|-------------|----------------
4x

                                                       1st time      2nd time
e-----------------------------------------------------|---------------|---
B-----------------------------------------------------|---------------|---
G--7-7-7-7-7-7-7-7------------------------------------|---------------|---
D--7-7-7-7-7-7-7-7--7-7-7-7-7-7-7-7--9-9-9-9-9-9-9-9--|5-5-5-5-5-5-5-5|5-5
A--5-5-5-5-5-5-5-5--7-7-7-7-7-7-7-7--9-9-9-9-9-9-9-9--|5-5-5-5-5-5-5-5|5-5
E-------------------5-5-5-5-5-5-5-5--7-7-7-7-7-7-7-7--|3-3-3-3-3-3-3-3|3-3
2x

                                         1st time only
e------------------------------------------|----------
B------------------------------------------|----------
G--7-7-x-x-7-7-----------------------------|----------
D--7-7-x-x-7-7--7-7-x-x-7-7--9-9-x-x-9-9--5|---------5
A--5-5-x-x-5-5--7-7-x-x-7-7--9-9-x-x-9-9--5|---------5
E---------------5-5-x-x-5-5--7-7-x-x-7-7--3|---------3
2x

e-----------------------------------------------
B-----------------------------------------------
G-----------------------------------------------
D--7-7-5-5-4---7-7-5-5-4---7-7-5-5-4---0-0-4-4-5
A-----------------------------------------------
E-----------------------------------------------
2x
                               1st time    2nd time
e------------------------------|-------|--------------------
B------------------------------|-------|--------------------
G--7-x-x-7---------------------|-------|-------------------7
D--7-x-x-7--7-x-x-7--9-x-x-9--5|-x-x-5-|--5-5-5-5-5-5-5-5--7
A--5-x-x-5--7-x-x-7--9-x-x-9--5|-x-x-5-|--5-5-5-5-5-5-5-5--5
E-----------5-x-x-5--7-x-x-7--3|-x-x-3-|--3-3-3-3-3-3-3-3---
2x

aight, this is the first tab ive ever posted and i know its off a little.
the rhythm for the chorus is easier to play than it is to write out, so 
it shouldnt be hard to get it close. a couple of the chords may be wrong
too. oh well, its close enough id say. 
cya

Comments about this tab

Tyran001 - 2005-04-05

on the solo part it goes

D>-7(x16)--545/7-7(x16)--545/7-7(x16)--545/7-7(x32)

rest of the tab is good. you listen to blink 182?


Add a comment/correction

Complimentary Christian Ringtones
Dadamobile and CGR have teamed up to bring your favorite Christian artists right to your phone. Sign up today and get 10 complementary ringtones!
Tab Country
Did you know CGR has a sister site w/ country guitar tabs? Well we do! Its called Tab Country. It has a great archive with a lot of country tabs.
Rockin Tabs
Are you looking for a site that has rock guitar tabs? Then Rockintabs.com is the place for you. It is a budding site with many rock guitar tabs. Submit your tab today.
Tab Gallery
Tab Gallery has a compilation of christian, rock, and country tabs all in one place. Come visit us.