Guitar Tabs
song title    band name

Join Us Today!

Don't strum alone...
be a part of the largest online Christian music community. Browse thousands of guitar tabs and chat w/ musicians like yourself.


It's Free!

All Together Separate - Paradigm

This tab has been rated a 5.00 out of 5 for accuracy. (4 votes)Sorry, but you must be logged in to rate this tab.
Click here to log-in, or you can click here to register.
(Registration is free)

All songs owned by corresponding publishing company. If you make copies of any song on this website, be sure to report your usage to CCLI.
Song: Paradigm
Group: All Together Separate
CD: All Together Separate
Copyright: 1999 Ardent Records
Tabbed by: Christopher Boos (Debra_@hotmail.com)

I hear 3 guitars in this song. One is playing lead with distortion,
one is picking the chords with a clean electric, and one is 
strumming with acoustic. Anyways, this is how I play it. Also,
thanks to Ian Smith who helped with the lead. You'll have to listen
to the song to get the timing. This should be pretty accurate cuz I
watched the video and listened to the song a million times!

gtr. 1: elec. (clean)
gtr. 2: elec. (distorted; & clean at other times)
gtr. 3: accoustic

Also, just in case you want to know, the bass intro is like this
g|--------|
d|--------|
a|-------2|
E|-0-2-4--|

First, drums come in...then play this...

gtr 1.
e|---0--------0---|---0------------|---0--------0---|----------------|
b|----------------|----------------|-------------0--|----------------|
g|--6--------2----|--1-------------|--6--------2--2-|----------------|
d|-6--------2-----|-2--------------|-6--------2----2|----------------|
a|4--------0------|2---------------|4--------0------|----------------|
E|----------------|----------------|----------------|0---------------|

gtr 2.(dist.)
e|-----------------------------------------------------12------------|
b|7h9-7------------------xx7h9-7----5h7-5---------9h10----10---------|
g|------------------------------------------4-6--------------------9-|
d|-----------------------------------------------------------6h7p6---|
a|-------------------------------------------------------------------|
E|-------------------------------------------------------------------|

gtr 3. is Just strumming the chords that gtr 1. plays. Listen to cd to
get the pattern. You have to listen VERY CAREFULLY!

After the intro, all guitars are tracet until chorus. When you see a 
riff letter, look at bottom of page to see the riff.

C#m A2 E 
Everybody loves a rose
C#m A2 E riff:A 
Will you be thankful for the thorns
C#m A2 E riff:B
Love is easy when you're loved
C#m A2 E riff:C
Do you curse another when you're alone

CHORUS* **

C#m A2 riff:D E
Ohhhhhhhhhhhhhhhhhhhhhhhhhh, I give my
C#m A2 E riff:E
Life, to you, so I, can gain it back again
C#m A2 E
Ohhhhhhhhhohohhhhhhhohhohhh, I stand solid while the
F#m(upstroke) riff:F
Paradigm is shifting

On the Chorus and next verse, gtr 3. is strumming.

*only play riffs D,E, and F on this first chorus.

**at the part when the chorus starts, gtr 1. is doing this the first 

time through it: 
{+++++++++++++++++++++++++++++++++} 
e|---0--------0---|---0---0--------|---0--------0---|---0------------|
b|----------------|---------0------|----------------|----------------|
g|--6--------2----|--1---1---------|--6--------2----|--1-------------|
d|-6--------2-----|-2--------------|-6--------2-----|-2--------------|
a|4--------0------|2---------------|4--------0------|2---------------|
E|----------------|----------------|----------------|----------------|

do this 1&1/2 times. Then play the part with the {++++} over it x4 
for the next verse.

gtr 2.(clean) 2nd verse (If it helps, the part with the
last two harms is the part that goes "people are dying everyday")

e|16~~~~~\14-\12--12harm-----12harm------------12harm--------|
b|-------------------12harm-----12harm---------------12harm--|
g|-----------------------------------------------------------|

then after "people are dying everyday", play this little riff...
e|---------------------------|
b|---------------------------|
g|---------------------------|
d|--4-6-4---6/-7---6---4-----|
a|7------------------------7-|
E|---------------------------|

You say live and let live
But people are dying everyday. And you say (you say)
what I don't know won't hurt me, but if what I do not 
know is the very thing I need then I say (then I say)

CHORUS

This time for the chorus, gtr 2. is tracet and gtr 1. plays this:
e|---0---------0--|---0---0--------|
b|-----0------0---|---------0------|
g|--6----6---2----|--1---1---------| X4
d|-6--------2-----|-2--------------|
a|4--------0------|2---------------|
E|----------------|----------------|

after Chorus, this bridge comes up. Same chords. Gtrs. are tracet

BRIDGE:

riff:G

Humanity sees truth through shattered window panes, that block the 
View, and plant the seed and so we draw the curtains
to a close but I say...

gtrs. 1&2 (dist.) {power chords}
e|------------------------------------------------------------|
b|------------------------------------------------------------|
g|6-6-6-6-6---------------------------------------------------|
d|6-6-6-6-6---------7-7-7-------7-----------------------------|X 2
a|4-4-4-4-4---------7-7-7-------7-2-----2-2-----2---2-2--2--2-|
E|------------------5-5-5-------5-0-----0-0-----0---0-0--0--0-|

That the sun can still shine behind a closed mind and
sticks and stones do hurt when tossed from the throne of mankind

CHORUS

during this Chorus, gtrs. 1&2 (dist.) strum the power chords in
different patterns. Same power chords as above. But when you 
reach the part where it goes "while the paradigm keeps shifting",

play this:
e|-------------------------|
b|-------------------------|
g|--------------------6\---|
d|4-4-4-4-4-4---------6\---|
a|4-4-4-4-4-4---------4\---|
E|2-2-2-2-2-2-2h4p2h4------|

{pm======}

[pm means "palm mute". Just slightly palm muted.]

CHORUS- gtrs. 1&2 strum power chords again. After that, gtr 1. plays
2nd part of intro. then play this when the band starts going,
"paradigm keeps shif-Par-a-digm-paradigm keeps shifting-keeps 
shifting":

e|----0---| |2~-|
b|---0-0--| |2~-|
g|--2---2-|X 6 then:|2~-|(Downstroke this F#m)
d|-2-----2| |4~-|
a|0-------| |4~-|
E|--------| |2~-|

For the outro, gtr 1. does the picking for chorus 2. 

gtr 2. (dist).
e|----------------------------------12~~~|
b|----------5h7-5-----------9h10--12-----|

riff A: gtr 2. (clean)
e|12-13--------------|
b|------12p9h12p9h12-|

riff B: " "
d|9~~~~~-|

riff C: " "
e|12~~\-|

riff D: gtr 2. (dist.)
e|---------------|
b|10p9-----------|
g|--------11p9~~~|

riff E: " "
e|----7~~~~|
b|4h5------|

riff F:
e|-----------|
b|-----------|
g|------9~~~~|
d|6/7-9------|

riff G:
e|----------------|
b|----------------|
g|----------------|
d|----------------|
a|4--6--7--9--11~~|
E|----------------|

Keep your eyes on Jesus. E-mail me for comments and questions 
at Debra_@hotmail.com

Comments about this tab

No comments/corrections found. Add your own

Complimentary Christian Ringtones
Dadamobile and CGR have teamed up to bring your favorite Christian artists right to your phone. Sign up today and get 10 complementary ringtones!
Tab Country
Did you know CGR has a sister site w/ country guitar tabs? Well we do! Its called Tab Country. It has a great archive with a lot of country tabs.
Rockin Tabs
Are you looking for a site that has rock guitar tabs? Then Rockintabs.com is the place for you. It is a budding site with many rock guitar tabs. Submit your tab today.
Tab Gallery
Tab Gallery has a compilation of christian, rock, and country tabs all in one place. Come visit us.