Guitar Tabs
song title    band name

Join Us Today!

Don't strum alone...
be a part of the largest online Christian music community. Browse thousands of guitar tabs and chat w/ musicians like yourself.


It's Free!

Relient K - Maybe It's Maybeline

This tab has been rated a 4.29 out of 5 for accuracy. (7 votes)Sorry, but you must be logged in to rate this tab.
Click here to log-in, or you can click here to register.
(Registration is free)

All songs owned by corresponding publishing company. If you make copies of any song on this website, be sure to report your usage to CCLI.
Relient K
Anatomy of the Tongue In Cheek
Maybe It's Maybeline
(c)2001 GoTee Records
Thomas(eastcoastpunk66@poppunk.com)

Intro              [Play from here when told to play Intro]
 [-----------------|-----------------------------]
 [-----------------|-7--7--10-8-7---7--7--10-8-7-]
 [-----------------|--7--7-------7---7--7--------]
 [-----------------|-----------------------------]
 [5-4-5-4-5-4-5-4..|-----------------------------]
 [-----------------|-----------------------------]
                     D     A        B     D
 [9-10-7--9-10---------]
 [-------------8--7--5-]
 [---------------------]
 [---------------------]
 [---------------------]
 [---------------------]
  G               F# A

Verse(No Guitar)

Pre-Chorus Riff
 [----------------------------------------------------------------]
 [----------------------------------------------------------------]
 [4-4-4-4--6-6-6-6--7-7-7-7--9-9-9-9--9-11111111111111-12-119-9-11]
 [x-x-x-x--x-x-x-x--x-x-x-x--x-x-x-x--x-x-x-x-x-x-x-x--x--x-x-x-x-]
 [2-2-2-2--4-4-4-4--5-5-5-5--7-7-7-7--7-9-9-9-9-9-9-9--10-9-7-7-9-]
 [----------------------------------------------------------------]

 [----------------------------------------------------------------]
 [----------------------------------------------------------------]
 [4-4-4-4--6-6-6-6--7-7-7-7--9-9-9-9--9-7-7-7-7-7-7-7--12-119-9-11]
 [x-x-x-x--x-x-x-x--x-x-x-x--x-x-x-x--x-x-x-x-x-x-x-x--x--x-x-x-x-]
 [2-2-2-2--4-4-4-4--5-5-5-5--7-7-7-7--7-5-5-5-5-5-5-5--10-9-7-7-9-]
 [----------------------------------------------------------------]

Chorus:
D  A  G  [stop]
D  E* (Octave chords)

(Intro Riff 2x)
(Verse)
(Pre-Chorus)
(Chorus)

Bridge(Not Perfect, But pretty darn close!)
 [---------------------------------------]
 [---------------------------------------]
 [-7----------7----------7--7--7----6--6-]
 [4--4-4-4-4h5--5-5-5-5h7--7--7--5-5--5--]
 [---------------------------------------]
 [---------------------------------------]

(Chorus)

Comments about this tab

mmggppmgp - 2004-12-29

the verse soounds palm muted


mtn_man9 - 2005-01-13

[9-10-7--9-10---------]
[-------------8--7--5-] In the second part of the intro where you have it drop back to the B string(8th fret), I think it goes higher there than it does the first time. I think the first "9-10-7" is right but then I think it goes "9-10-something higher" but I'm not postive but I think it should go
9-10-7--9-10-14...


mtn_man9 - 2005-01-13

Maybe not...not I have just really confused myself... :)


sixstringes777 - 2005-07-02

their is guitar in the verse
palm muted


guitarforgod23 - 2005-11-03

i concur


Add a comment/correction

Complimentary Christian Ringtones
Dadamobile and CGR have teamed up to bring your favorite Christian artists right to your phone. Sign up today and get 10 complementary ringtones!
Tab Country
Did you know CGR has a sister site w/ country guitar tabs? Well we do! Its called Tab Country. It has a great archive with a lot of country tabs.
Rockin Tabs
Are you looking for a site that has rock guitar tabs? Then Rockintabs.com is the place for you. It is a budding site with many rock guitar tabs. Submit your tab today.
Tab Gallery
Tab Gallery has a compilation of christian, rock, and country tabs all in one place. Come visit us.