Guitar Tabs
song title    band name

Join Us Today!

Don't strum alone...
be a part of the largest online Christian music community. Browse thousands of guitar tabs and chat w/ musicians like yourself.


It's Free!

Delirious - God's Romance

This tab has been rated a 4.67 out of 5 for accuracy. (3 votes)Sorry, but you must be logged in to rate this tab.
Click here to log-in, or you can click here to register.
(Registration is free)

All songs owned by corresponding publishing company. If you make copies of any song on this website, be sure to report your usage to CCLI.
God's Romance
Delirious?
CD: Glo
c2000 Curious? Music
Tabbed by Steve Cruickshank
(postlambjam@hotmail.com)


Intro: (continued throughout verse)

Use a lot of distortion so the harmonics are loud and clear.
Play it with your pinky finger over fret 7, your middle finger over fret 5,
and your index finger over fret 4, this should allow you to play the riff
as quickly as it is on the CD.

e---------------------------------------------------------------------------
B---------------------------------------------------------------------------
G---------------------------------------------------------------------------
D---------------------------------------------------------------------------
A---0-0-0---<7>--<5>-<5>--<4>--<7>------------------------------------------
E---------------------------------------------------------------------------



Verse:
(A  F#m  D  E  A) x2

Prechorus:
(D/F#  E/G#  A/C#  D/F#) x2

Chorus:
(A  F#m  E  D) x2

[verse]

[prechorus]

[chorus]


Bridge:

e---10---9---7---9---10---9---7---9---10---9---7---9---10---9---7---9-------
B---10--10--10--10---10--10--10--10---10--10--10--10---10--10--10--10-------
G---------------------------------------------------------------------------
D---------------------------------------------------------------------------
A---------------------------------------------------------------------------
E---------------------------------------------------------------------------
    A                F#m              E                D


2nd part:
e---------------------------------------------------------------------------
B---------------------------------------------------------------------------
G---------------------------------------------------------------------------
D---------------------------------------------------------------------------
A----<5>--------------------------------------------------------------------
E---------------------------------------------------------------------------




Solo: (Played with a slide)

e---5~~~~-----/17-----------------------------------------------------------
B--------------------15~~~~---------17~~----14~~----\10~~-------------------
G---------------------------------------------------------------------------
D---------------------------------------------------------------------------
A---------------------------------------------------------------------------
E---------------------------------------------------------------------------
                     A                      F#m

e---------------------------------------------------------------------------
B----/15~~~----/17~~~--------14~~~------/19~~~~----------19\0---------------
G---------------------------------------------------------------------------
D---------------------------------------------------------------------------
A---------------------------------------------------------------------------
E---------------------------------------------------------------------------
      E                      D


At the end of the solo there, use the slide to slowly slide down from the
19th fret of the B strings gradually down to the 1st fret of the string,
and then let the open B note ring.

Outro:

e---------------------------------------------------------------------------
B---------------------------------------------------------------------------
G---------------------------------------------------------------------------
D---------------------------------------------------------------------------
A------5h7p5--------------(x4)----------------------------------------------
E--------------3/5----------------------------------------------------------

e---------------------------------------------------------------------------
B-----7-7-8-7-7-8-7-7-8-7-7-8-7-7-8-7-7-10----------------------------------
G-----7-7-7-7-7-7-7-7-7-7-7-7-7-7-7-7-7--7----------------------------------
D---------------------------------------------------------------------------
A---------------------------------------------------------------------------
E---------------------------------------------------------------------------

e-----10--9--7--5--3--------------------------------------------------------
B---------------------------------------------------------------------------
G---------------------------------------------------------------------------
D---------------------------------------------------------------------------
A---------------------------------------------------------------------------
E---------------------------------------------------------------------------

e-----10--9--7--5--3--------------------------------------------------------
B---------------------6--5--3---3/8-----------------------------------------
G---------------------------------------------------------------------------
D---------------------------------------------------------------------------
A---------------------------------------------------------------------------
E---------------------------------------------------------------------------

Comments about this tab

Delirious Ste - 2007-05-29

Has anyone sen tem do this live?
Do they have two guitars or one?


Add a comment/correction

Complimentary Christian Ringtones
Dadamobile and CGR have teamed up to bring your favorite Christian artists right to your phone. Sign up today and get 10 complementary ringtones!
Tab Country
Did you know CGR has a sister site w/ country guitar tabs? Well we do! Its called Tab Country. It has a great archive with a lot of country tabs.
Rockin Tabs
Are you looking for a site that has rock guitar tabs? Then Rockintabs.com is the place for you. It is a budding site with many rock guitar tabs. Submit your tab today.
Tab Gallery
Tab Gallery has a compilation of christian, rock, and country tabs all in one place. Come visit us.