Guitar Tabs
song title    band name

Join Us Today!

Don't strum alone...
be a part of the largest online Christian music community. Browse thousands of guitar tabs and chat w/ musicians like yourself.


It's Free!

Delirious - What Would I Have Done

This tab has been rated a 5.00 out of 5 for accuracy. (1 vote)Sorry, but you must be logged in to rate this tab.
Click here to log-in, or you can click here to register.
(Registration is free)

All songs owned by corresponding publishing company. If you make copies of any song on this website, be sure to report your usage to CCLI.
What Would I Have Done?
Delirious?
CD: Glo
c2000 Curious? Music
Tabbed by Steve Cruickshank
(postlambjam@hotmail.com)


This song uses an open-D tuning on two acoustics, played finger-picked style.
Don't worry, it's not as bad as it sounds.  All that's necessary is to tune
down 3 of your strings a little.
Delirious has it in DADGAd tuning, so start by going into double-drop-D, 
tuning both the low E and the high e strings down to D notes. (DADGBd)
Then tune the B string down to an A, and you're all set.


Intro: play it twice

d--------------------0------------------------0-----------------------------
A----------------------0--------------------0---0---------------------------
G-----------------------------------------2---------------------------------
D-------2/4--4-4-4--------4--5----5/7--4-------------\2---------------------
A----------------------------0---------0------------------------------------
D---0------------------------0---------0------------------------------------
    D                        Dsus      D


A second acoustic (heard on the right side of the mix) plays riffs throughout
the song using a slide.  Here's what it plays in the intro
d---------------------------------------------------------------------------
A-------5-5-5-5-5---------5--7----9\5---------------------------------------
G---------------------------------------------------------------------------
D---------------------------------------------------------------------------
A---------------------------------------------------------------------------
D---------------------------------------------------------------------------


Verse:
D  Dsus  D
D  Dsus  D  A  G
D  Dsus  D
D  Dsus  D  A  G
[intro x2]


Verse tab:
d--------------------0------------------------0-----------------------------
A----------------------0--------------------0---0---------------------------
G-----------------------------------------2--------------------------------- 
(x2)
D-------2/4--4-4-4--------4--5----5/7--4------------------------------------
A----------------------------0---------0------------------------------------
D---0------------------------0---------0------------------------------------
    D                        Dsus      D

d----------------0---------------0--------0---------------------------------
A--------0---------0---------------0--------0-------------------------------
G----------6-------------------------4--------4-----------------------------
D-----0------0----------------0--------0------------------------------------
A---0-----------------------------------------------------------------------
D--------------------------5------------------------------------------------
    A                      G




Chorus:
G  D/F#  Em7
[intro]

Chorus tab:
d-------------------------------0------0----------------0--------0----------
A---------0---------0-------------0------0----------------0--------0--------
G--------------4-------------2------2-----------------------0--------0------
D------0-----0---0---------0---------------------0------------0--------0----
A---------------------------------------------------0-----------------------
D---5----------------------4---------------------2--------------------------
    G                      D/F#                  Em7



After the first chorus, when the intro is repeated, the acoustic with the 
slide plays this variation:
d---------------------------------------------------------------------------
A-----9-9-9-9-----9-10--/12\9--9---------------------------------0----------
G--------------------------------------------/7-7-7-7-----/9\-7\-2----------
D---------------------------------------------------------------------------
A---------------------------------------------------------------------------
D---------------------------------------------------------------------------
      D             Dsus       D            D              Dsus  D


[Verse]

[chorus]

Bridge:

Rhythm acoustic: (and other variations of this)
d------------0-----------------------0--------------------------------------
A-------0------0---0------------0------0------------------------------------
G---------7------7----------------6------6----------------------------------
D---------------------------------------------------------------------------
A---5-----------------------5-----------------------------------------------
D---------------------------------------------------------------------------


Solo, with slide

d----7---5p4--5-------------------------------------------------------------
A---------------------/9-\7-----5-4---5------------7p5---5/7----------------
G---------------------------------------------------------------------------
D---------------------------------------------------------------------------
A---------------------------------------------------------------------------
D---------------------------------------------------------------------------

d----11--12--9--9-------11---12\7---------7\5-------------------------------
A------------------------------------------------7/9\----5------------------
G---------------------------------------------------------------------------
D---------------------------------------------------------------------------
A---------------------------------------------------------------------------
D---------------------------------------------------------------------------

d--------------------------------0----------------0-------------------------
A----------------------------------0------------------0---------------------
G----11-----------------------0------0---------0----0---0-------------------
D--------9----12------------------------------------------------------------
A----------------9--9/10--10-------------9/10-------------------------------
D---------------------------------------------------------------------------

d--------------0----------------0-------------------------------------------
A------------0-----0----------0------0--------------------------------------
G----------------0---0-------------0---0------------------------------------
D---------------------------------------------------------------------------
A----10/12------------------------------------------------------------------
D---------------------------------------------------------------------------

d-------------0-----------------0-------------------------------------------
A-----------0---0-------------0---0-----------------------------------------
G---------7-------7---------7-------7---------9~~-----9/11--11--------------
D----7/9------------9-----9-----------9-------------------------12\---------
A---------------------------------------------------------------------9-----
D---------------------------------------------------------------------------

d----12------11----9----7------5h7p5p4----4----4----0-----2--4--------------
A-------0-------0----0----0-----------------0----0------0-------------------
G---------0-----------------------------------------------------------------
D---------------------------------------------------------------------------
A---------------------------------------------------------------------------
D---------------------------------------------------------------------------

d----4--0--4--0--------2--4--0---2--4--0------------------------------------
A---------------------------------------------------------------------------
G---------------------------------------------------------------------------
D---------------------------------------------------------------------------
A---------------------------------------------------------------------------
D---------------------------------------------------------------------------


[Then just play the chorus until the song fades out]


Chord shapes in DADGAd tuning:

D    000200 or 057700
G    550000 or 555000
A    x02200 or 777000
Em   222000 or 202020
D/F# 400200
Bm   x24400
etc.

Comments about this tab

No comments/corrections found. Add your own

Complimentary Christian Ringtones
Dadamobile and CGR have teamed up to bring your favorite Christian artists right to your phone. Sign up today and get 10 complementary ringtones!
Tab Country
Did you know CGR has a sister site w/ country guitar tabs? Well we do! Its called Tab Country. It has a great archive with a lot of country tabs.
Rockin Tabs
Are you looking for a site that has rock guitar tabs? Then Rockintabs.com is the place for you. It is a budding site with many rock guitar tabs. Submit your tab today.
Tab Gallery
Tab Gallery has a compilation of christian, rock, and country tabs all in one place. Come visit us.