Guitar Tabs
song title    band name

Join Us Today!

Don't strum alone...
be a part of the largest online Christian music community. Browse thousands of guitar tabs and chat w/ musicians like yourself.


It's Free!

Audio Adrenaline - Will Not Fade

This tab has been rated a 5.00 out of 5 for accuracy. (5 votes)Sorry, but you must be logged in to rate this tab.
Click here to log-in, or you can click here to register.
(Registration is free)

All songs owned by corresponding publishing company. If you make copies of any song on this website, be sure to report your usage to CCLI.
Will Not Fade
Audio Adrenaline
CD: Hit Parade
c2000 Up in the Mix Music
Tabbed by Steve Cruickshank
(postlambjam@hotmail.com)



Intro:
e----------------------------------------------------------------
B----------------------------------------------------------------
G----------------------------------------------------------------
D----------------------------------------------------------------
A---------7-5b----------7-5b----------7-5b----------7-5b---------
E---0-0-0---------0-0-0---------0-0-0---------0-0-0--------------


Chorus riff:
e----------------------------------------------------------------
B----------------------------------------------------------------
G----------------------------------------------------------------
D---------------------------------------------------------------- (x4)
A---------7-5b----------7-5b----------7-5b----7-5-7-5b-----------
E---0-0-0---------3-3-3---------5-5-5----------------------------


Then this echoes:
E------12\0------------------------------------------------------



Verse: (Bass only at first)

E  G      A
   I will not fade
E  G              A
   I won't let my light go out


Enter guitar:
e-----7-----------10------------12-------------------------------
B-------8------------12------------14----------------------------
G---9----------12------------14----------------------------------
D----------------------------------------------------------------
A----------------------------------------------------------------
E----------------------------------------------------------------
    Em         G             A
               I  will  not  masquerade


e------15----------10----------9---10---12---14------------------
B---------17----------12-----------------------------------------
G---16----------12-----------9---9----9----9---------------------
D----------------------------------------------------------------
A----------------------------------------------------------------
E----------------------------------------------------------------
    Em          G            A
         I know who I am and what I'm all about



Prechorus:
(Guitar plays a high G octave (x10x12xx) on the C, and an E octave (x7x9xx) 
on the A

C                    A
  For all these years, I've traveled on
C                       A
  And you have cheered, shine on, shine on



Chorus: (chorus riff)

Em            G
What I am and who I am
   A
Is never gonna change
    Em                 G             A
The hits will come and I will not be swayed
     Em                  G
I've always been, what I want to be
    A
The world can clearly see
Em      G     A
I won't fade away


Verse 2:
There is no life
That I would rather live
I will continue on
Until you take me home


[prechorus]

[chorus]


Bridge:
C         D
  I don’t run
     Em                     A
When stormy skies appear, I pray
C       D           Em                             A
Oh, the power, that I possess, when the skies turn black
        C                D
I still burn, the lights on


Bridge tab:
e-----3--------------5-----5--------------7---10-12-10-----------
B---------5--------7---7-8---8-7--------8---8---------------5----
G---5---5------5/7-------------------/9-----------------------6--
D---------------------------------------------------------7------
A----------------------------------------------------------------
E----------------------------------------------------------------
    C          D                      Em                  A

e-----3--------------5-----5--------------7---10-12-10-------------------5-
B---------5--------7---7-8---8-7--------8---8------------7-8-7-8-7-8-7-8---
G---5---5------5/7-------------------/9------------------------------------
D--------------------------------------------------------------------------
A--------------------------------------------------------------------------
E--------------------------------------------------------------------------
    C          D                      Em                 A

e-----3----------------5-----------------------------------------
B---------5------7h8-7---7h8-7h8-7h8-----------------------------
G---5---5--------------------------------------------------------
D----------------------------------------------------------------
A----------------------------------------------------------------
E----------------------------------------------------------------
    C            D



[intro]

[chorus x2]

Comments about this tab

newsboysrule - 2004-09-17

Nice job bro. Sounds great! Rock on!


jamuel24 - 2005-08-11

this looks great, just one thing...on the chorus i believe the lyrics are "I've always been WHAT I AM", not "what i want to be"


guitarforgod23 - 2005-11-03

he's tabbing guitar not lyrics but youre right... nice tab... works great!


swimmer009 - 2006-06-19

hey dosnt the first part change along with the bass like 000 then 333 then 555 just a thought


swimmer009 - 2006-06-19

haha woops i didnt even glance at the next part my bad hey good tab by the way


ChurchPunk88 - 2007-05-18

Beautifully Done Dude


Ccheese4 - 2007-08-31

nice


Add a comment/correction

Complimentary Christian Ringtones
Dadamobile and CGR have teamed up to bring your favorite Christian artists right to your phone. Sign up today and get 10 complementary ringtones!
Tab Country
Did you know CGR has a sister site w/ country guitar tabs? Well we do! Its called Tab Country. It has a great archive with a lot of country tabs.
Rockin Tabs
Are you looking for a site that has rock guitar tabs? Then Rockintabs.com is the place for you. It is a budding site with many rock guitar tabs. Submit your tab today.
Tab Gallery
Tab Gallery has a compilation of christian, rock, and country tabs all in one place. Come visit us.