Guitar Tabs
song title    band name

Join Us Today!

Don't strum alone...
be a part of the largest online Christian music community. Browse thousands of guitar tabs and chat w/ musicians like yourself.


It's Free!

Tree63 - Treasure

This tab has been rated a 4.25 out of 5 for accuracy. (4 votes)Sorry, but you must be logged in to rate this tab.
Click here to log-in, or you can click here to register.
(Registration is free)

All songs owned by corresponding publishing company. If you make copies of any song on this website, be sure to report your usage to CCLI.
Treasure
Tree63
CD: Tree63
c2000 Birdwing Music/Near Bliss
Written by John Ellis
Tabbed by Steve Cruickshank
(postlambjam@hotmail.com)


Tune guitars down half a step


Intro: you can hear the open D string being hit with each strum
so this is the best way I found to play it (bit of a stretch for
the fingers but I think its manageable)
eb-----------------------------------------------------------------
Bb-----------------------------------------------------------------
Gb---7-9-11--11-9-7-9--11-11--11/12---9---------------------------- (x3)
Db---0-0--0---0-0-0-0---0--0---0------0----------------------------
Ab-----------------------------------------------------------------
Eb-----------------------------------------------------------------

eb-----------------------------------------------------------------
Bb-----------------------------------------------------------------
Gb---7-9-11--11-9-7-9--12-12--12\11---9----------------------------
Db---0-0--0---0-0-0-0---0--0---0------0----------------------------
Ab-----------------------------------------------------------------
Eb-----------------------------------------------------------------

Guitar continues with that riff, and the bass plays this:

D  Em  Bm  G



Verse 1:

D  x5777x
C  x3555x
Bm x24432
G  3x0233


D                   C
Taken up out of the world
                      Bm
Shaken up with just a word
                       G
Turned around so suddenly
                 D
I'm alive eternally
                C
Something invisible
                    Bm
Has become so beautiful
                  G
I know I am born again

Laughing and stumbling


Prechorus:
A               G
  Draw me after you
                A
Let me run with you
                 G
Show me all your kingdom come



Chorus: the guitar plays octaves
D  x5x7xx
C  x3x5xx
Bm x2x4xx
G  3x5xxx

D           C                 Bm
My heart is where my treasure lies
           G               D
My great reward is in your eyes
         C                 Bm
My every breath belongs to you
           G
You are my treasure


[first 2 lines of intro]


Verse 2:
Take the world up out of me
Put the fruit back on the tree
I give everything to be
What only you want me to be
The treasure that you've become
Is shining brighter than the sun
Feel like I am born again
But I'm stumbling


[prechorus]

[chorus]


Bass plays:  D   Em   Bm   G


Solo:
eb-----------------------------------------------------------------
Bb----------------15~----------------------------------------------
Gb---11~-12~-14~---------------------------------------------------
Db-----------------------10-12-10-12--12~~~------------------------
Ab-----------------------------------------------------------------
Eb-----------------------------------------------------------------
     D                   Em

eb-----------------------------------------------------------------
Bb----------------13~---12b13r12-----------------------------------
Gb---11~-12~-14~----------------------14-12------14----------------
Db---------------------------------12---------12-------------------
Ab-----------------------------------------------------------------
Eb-----------------------------------------------------------------
     Bm                 G




Then the chorus is played again, the bass plays only D, and the
guitar plays this thing:
eb-----------------------------------------------------------------
Bb-----------------------------------------------------------------
Gb---x-x-7-x-7-x-7-x-7-7-5h7---------------------------------------
Db---x-x-7-x-7-x-7-x-7-7-7-----------------------------------------
Ab---x-x-5-x-5-x-5-x-5-5-5-----------------------------------------
Eb-----------------------------------------------------------------


[back to regular chorus]

[intro, one guitar keeps strumming D octave (x5x7xx)]

Comments about this tab

hotrodjackson35 - 2006-06-17

eb-----------------------------------------------------------------
Bb-----------------------------------------------------------------
Gb---7-9-11---7-11-11---11/12---9----------------------------
Db---0-0--0---0--0--0----0--0---0----------------------------------
Ab-----------------------------------------------------------------
Eb-----------------------------------------------------------------


kurtalanlane - 2011-07-31

eb-----------------------------------------------------------------
Bb-----------------------------------------------------------------
Gb---7/9-11-11---7/9-11-11---11-12-9----------------------------
Db---0-0-0--0----0-0-0--0----0--0--0----------------------------------
Ab-----------------------------------------------------------------
Eb-----------------------------------------------------------------
***slide pointer finger on 7/9 then you have pointer-index-pinky
to play 9-11-12


Add a comment/correction

Complimentary Christian Ringtones
Dadamobile and CGR have teamed up to bring your favorite Christian artists right to your phone. Sign up today and get 10 complementary ringtones!
Tab Country
Did you know CGR has a sister site w/ country guitar tabs? Well we do! Its called Tab Country. It has a great archive with a lot of country tabs.
Rockin Tabs
Are you looking for a site that has rock guitar tabs? Then Rockintabs.com is the place for you. It is a budding site with many rock guitar tabs. Submit your tab today.
Tab Gallery
Tab Gallery has a compilation of christian, rock, and country tabs all in one place. Come visit us.