Guitar Tabs
song title    band name

Join Us Today!

Don't strum alone...
be a part of the largest online Christian music community. Browse thousands of guitar tabs and chat w/ musicians like yourself.


It's Free!

This tab has not yet been rated for accuracy.Sorry, but you must be logged in to rate this tab.
Click here to log-in, or you can click here to register.
(Registration is free)

All songs owned by corresponding publishing company. If you make copies of any song on this website, be sure to report your usage to CCLI.
That's What You Say
Skypark
CD: Overbluecity
c2000 Word Music
Tabbed by Steve Cruickshank
(postlambjam@hotmail.com)

Tune down half a step


Acoustic intro:
eb-------1-------0----------------------------------------------
Bb-------3-------1----1-----0-------------3---------------------
Gb-----2---2----------0-----0------0------2--------------------- (x2)
Db---0-------------2-------------2--------0---------------------
Ab---------------3-------------2--------------------------------
Eb--------------------------0-----------------------------------
     Dm          C          Em             D2



Verse 1:
Dm       C                  Em    D2
  You're running through my mind again
Dm  C                Em         D2
  I came across your words 'the end'
Dm     C             Em    D2
  It's only right we walk away
Dm     C             Em       D2   G
  It's only right is what you say


Chorus:
C        Am           Dm
  It's alright, it's okay
                      C
We're better off this way
       Am           Dm
It's alright, it's okay
                         G7
At least that's what you say


Verse 2:
I'm falling off the world again
I came across your words 'the end'
I'm all uptight in losing you
You're moving on to something new


Gsus G


[repeat chorus, end on G instead of G7]


Piano solo, with violins: Dm  C  Em  D2

                          Dm  C  Em  G


[chorus x2]

Gsus  G


End:
eb-------1-------0----------------------------------------------
Bb-------3-------1----1-----0-------------3---------------------
Gb-----2---2----------0-----0------0------2---------------------
Db---0-------------2-------------2--------0---------------------
Ab---------------3-------------2--------------------------------
Eb--------------------------0-----------------------------------

eb-------1-------0---------------------------0------------------
Bb-------3-------1----1-----0---------------3-------------------
Gb-----2---2----------0-----0------0-------2--------------------
Db---0-------------2-------------2--------0---------------------
Ab---------------3-------------2--------------------------------
Eb--------------------------0-----------------------------------

Dm       C                  Em    D2
  You're running through my mind again
Dm  C                Em         D2
  I came across your words 'the end'


Chords:
Dm    xx0231
C     x32010
Em    022000
D2    xx0230
G     320003
G7    320001
Gsus  320013

Comments about this tab

No comments/corrections found. Add your own

Complimentary Christian Ringtones
Dadamobile and CGR have teamed up to bring your favorite Christian artists right to your phone. Sign up today and get 10 complementary ringtones!
Tab Country
Did you know CGR has a sister site w/ country guitar tabs? Well we do! Its called Tab Country. It has a great archive with a lot of country tabs.
Rockin Tabs
Are you looking for a site that has rock guitar tabs? Then Rockintabs.com is the place for you. It is a budding site with many rock guitar tabs. Submit your tab today.
Tab Gallery
Tab Gallery has a compilation of christian, rock, and country tabs all in one place. Come visit us.