Guitar Tabs
song title    band name

Join Us Today!

Don't strum alone...
be a part of the largest online Christian music community. Browse thousands of guitar tabs and chat w/ musicians like yourself.


It's Free!

This tab has not yet been rated for accuracy.Sorry, but you must be logged in to rate this tab.
Click here to log-in, or you can click here to register.
(Registration is free)

All songs owned by corresponding publishing company. If you make copies of any song on this website, be sure to report your usage to CCLI.
Please Don't Go Away
Skypark
CD: Overbluecity
c2000 Word Music
Tabbed by Steve Cruickshank
(postlambjam@hotmail.com)


Tune down half a step


Intro: acoustic
eb---0--0--0-0----0--0--0-0----0--0--0-0----0--0--0-0------------------------
Bb---2--2--2-2----4--4--4-4----3--3--3-3----2--2--2-2------------------------
Gb---2--2--2-2----4--4--4-4----2--2--2-2----2--2--2-2------------------------
Db---2--2--2-2----4--4--4-4----3--3--3-3----2--2--2-2------------------------
Ab---0--0--0-0----0--0--0-0----0--0--0-0----0--0--0-0------------------------
Eb---------------------------------------------------------------------------
     A            Bsus/A       Dm/A         A

Intro: electric
eb---------------------------------------------------------------------------
Bb---------------------------------------------------------------------------
Gb----14-16-16b18r16---------14-16-16b18r16---------14-16-16b18r16-------/14-
Db-------------------14-13------------------13-12------------------12-11-----
Ab---------------------------------------------------------------------------
Eb---------------------------------------------------------------------------
    A                   Bsus/A                 Dm/A                   A


Then:
eb---0--0--0-0-----0---------------------------------------------------------
Bb---2--2--3-2-----0---------------------------------------------------------
Gb---2--2--2-2-----2---------------------------------------------------------
Db---2--2--2-2-----3---------------------------------------------------------
Ab---0--0--0-0-----3---------------------------------------------------------
Eb-----------------1---------------------------------------------------------
     A    Asus A   Fmaj7(b5)



Verse 1:
                 A    Fmaj7(b5)
Please don't go away
                      A     Fmaj7(b5)
I need you my friend, stay
                      A     Fmaj7(b5)
In all these troubled times
                           Dm
You've brought me peace of mind

               Dm(maj7)
  It breaks my heart
Dm             Dm(maj7)         A [chorus]
  It breaks my heart to see you go


Verse tab:
eb--------0-----------0------------0------------0-------------0----------0---
Bb------2---2-----------3--------2---2--------1---0-1-------2---2----------3-
Gb----2-------2-----2----------2-------2----2-------------2-------2----2-----
Db--2-------------3----------2--------------------------2------------3-------
Ab---------------------------------------------------------------------------
Eb---------------------------------------------------------------------------
    A             Fmaj7(b5)  A              Fmaj7(b5)   A            
Fmaj7(b5)

eb----------1-------------1-------1----------------1-----------1-------1-----
Bb--3---3-------3-------2---2---2---2------3---3-------3-----2---2---2---2---
Gb----2---2---2---2-----------2-------2------2---2---2---2---------2-------2-
Db---------------------------------------------------------------------------
Ab---------------------------------------------------------------------------
Eb---------------------------------------------------------------------------
    Dm                  Dm(maj7)           Dm                Dm(maj7)



Chorus: play intro progression x2

Please don't go away


Then:
A A  Asus A   Fmaj7(b5)


Verse 2:
And in this darkened world
You've been my hidden pearl
And in the light of day
You put the sun to shame

It breaks my heart
It breaks my heart to see you go


[chorus x2]

Then:
A A  Asus A   Fmaj7(b5)   (x2)



Bridge:
Bm      F#               G           G7
  And I know that I have failed you (sorry that I let you down)
Bm            F#                   G    G7
  Sometimes I feel like that's all I do
Bm            F#           G         G7
  But let the fading day remind you (watch it fade away)
Bm                 F#            G      A
  That there's somebody thinking of you


Bridge tab:
eb----10----------10----10----------10----11----3-----5----------------------
Bb----12----11----12----12----------12----11----3-----5----------------------
Gb----11----11----12----10---(x3)---11----11----4-----6----------------------
Db----------11----------------------------------5-----7----------------------
Ab----------------------------------------------5-----7----------------------
Eb----------------------------------------------3-----5----------------------
      Bm    F#    G     G7          Bm    F#    G     A




Then: Intro, with different lead

eb------------------------------------------------------------------------------------
Bb------------------------------------------------------------------------------------
Gb-----14-16-16b18r16--------14-16-16b18r16--------14-16-16b18r16-------14------------
Db-14-----------------14-13-----------------13-12-----------------12-11------11-12-13-
Ab------------------------------------------------------------------------------------
Eb------------------------------------------------------------------------------------
   A                     Bsus/A                Dm/A                  A

eb------------------------------------------------------------------------------------
Bb---------------------------------------17-------------------------------------------
Gb-----14-16-16b18r16-------/16---14-16b----r16--14-16-----14-16-16b18r16-------14----
Db-14-----------------14-13----------------------------12-----------------12-11-------
Ab------------------------------------------------------------------------------------
Eb------------------------------------------------------------------------------------
   A                     Bsus/A                        Dm/A                  
A


[chorus x6]


Chords for acoustic:
A         x02220
Bsus/A    x04440
Dm/A      x03230
Fmaj7(b5) 133200
Dm        xx0231
Dm(maj7)  xx0221

Comments about this tab

No comments/corrections found. Add your own

Complimentary Christian Ringtones
Dadamobile and CGR have teamed up to bring your favorite Christian artists right to your phone. Sign up today and get 10 complementary ringtones!
Tab Country
Did you know CGR has a sister site w/ country guitar tabs? Well we do! Its called Tab Country. It has a great archive with a lot of country tabs.
Rockin Tabs
Are you looking for a site that has rock guitar tabs? Then Rockintabs.com is the place for you. It is a budding site with many rock guitar tabs. Submit your tab today.
Tab Gallery
Tab Gallery has a compilation of christian, rock, and country tabs all in one place. Come visit us.