Guitar Tabs
song title    band name

Join Us Today!

Don't strum alone...
be a part of the largest online Christian music community. Browse thousands of guitar tabs and chat w/ musicians like yourself.


It's Free!

Lifehouse - Sick Cycle Carousel

This tab has been rated a 3.50 out of 5 for accuracy. (2 votes)Sorry, but you must be logged in to rate this tab.
Click here to log-in, or you can click here to register.
(Registration is free)

All songs owned by corresponding publishing company. If you make copies of any song on this website, be sure to report your usage to CCLI.
Sick cycle carousel
Group:Lifehouse
Album Title:No Name Face
Tabbed by Brandon Short

Tuning - Eb Ab Db Gb Bb Eb (You can use standard tuning to play
this, but itís not the same key as the album. Eb tuning is.)
Verse 1:
eb|-----------------------------
Bb|----------------------0------
Gb|--------------------0---0----
Db|--3-3-2---0-0---0h2-------2--
Ab|--------------3-0------------
Eb|1-------3--------------------

eb|-------------------------------
Bb|-------------------0h1p--------
Gb|------------------------0---0--
Db|--3-3-2---0-0---0h2-------2---3
Ab|--------------3-0--------------
Eb|1-------3----------------------

eb|-----------------------------
Bb|----------------------0------
Gb|--------------------0---0----
Db|--3-3-2---0-0---0h2-------2--
Ab|--------------3-0------------
Eb|1-------3--------------------

eb|-----------------
Bb|-----------------
Gb|-----------------
Db|3----3--2--------
Ab|-----------------
Eb|1----1--0--------


Bridge:(play Am,Em,F and G formations, open{acoustic} or barred{electric})
(Am  Em  F  G) x4

Chorus:(play C,G,Am, and F formations)
(C  G  Am  F) x2

(play the verse tabs for this instrumental part,some notes you can leave out
but you donít have to, then go into the next verse)

Verse 2:
eb|-----------------------------
Bb|----------------------0------
Gb|--------------------0---0----
Db|--3-3-2---0-0---0h2-------2--
Ab|--------------3-0------------
Eb|1-------3--------------------

eb|-------------------------------
Bb|-------------------0h1p--------
Gb|------------------------0---0--
Db|--3-3-2---0-0---0h2-------2---3
Ab|--------------3-0--------------
Eb|1-------3----------------------

eb|-----------------------------
Bb|----------------------0------
Gb|--------------------0---0----
Db|--3-3-2---0-0---0h2-------2--
Ab|--------------3-0------------
Eb|1-------3--------------------

eb|-----------------
Bb|-----------------
Gb|-----------------
Db|3----3--2--------
Ab|-----------------
Eb|1----1--0--------

Bridge

Chorus:
(C  G  Am  F) x2
(Am  Em  F  G) x4

(repeat verse tabs)
(repeat chorus and keep playing chorus chords all the way through the end)
Email me at Paradigmps15@hotmail.com and let me know what you think

Comments about this tab

sneakyweasel19 - 2004-11-24

This might sound a little confusing, but this is all right i think, except for one note. When there is the first 3 on the base string ( or a G flat i suppose), play another two right above it, so don't let go of it yet... if you've noticed it too hopefully that will make sense.


Scorger - 2005-01-13

Your Intro is almost correct but here are a few corrections:

Tune down a half step:
Eb Ab Db Gb Bb Eb

Intro:
Riff A
e-----------------------------------------------------------------
b-----------------------0---------------------------0h1p0---------
g---------------------0-----0-----------------------------0----0--
d-----3-2-2-0-0-----2---------3-----3-2-2-0-0-----2---------2----3
a---3-----------3-0---------------3-----------3-0-----------------
e-1-------3---------------------1-------3-------------------------

Good Job on the tabbing!


ephesians5:14 - 2005-08-30

Your tab sounds really great. Do you (or anyone for the matter) know the tab for All In All? I sort of think i have it but it doesnt quite sound right. So if anyone's figured it out and could post it, that would rock.
-StupidLyss


Add a comment/correction

Complimentary Christian Ringtones
Dadamobile and CGR have teamed up to bring your favorite Christian artists right to your phone. Sign up today and get 10 complementary ringtones!
Tab Country
Did you know CGR has a sister site w/ country guitar tabs? Well we do! Its called Tab Country. It has a great archive with a lot of country tabs.
Rockin Tabs
Are you looking for a site that has rock guitar tabs? Then Rockintabs.com is the place for you. It is a budding site with many rock guitar tabs. Submit your tab today.
Tab Gallery
Tab Gallery has a compilation of christian, rock, and country tabs all in one place. Come visit us.