Guitar Tabs
song title    band name

Join Us Today!

Don't strum alone...
be a part of the largest online Christian music community. Browse thousands of guitar tabs and chat w/ musicians like yourself.


It's Free!

Brave Saint Saturn - Fireworks

This tab has been rated a 5.00 out of 5 for accuracy. (1 vote)Sorry, but you must be logged in to rate this tab.
Click here to log-in, or you can click here to register.
(Registration is free)

All songs owned by corresponding publishing company. If you make copies of any song on this website, be sure to report your usage to CCLI.
Song: Fireworks
Artist: Brave Saint Saturn
Album: So Far From Home
Copyright 2000 5 minute walk records
Tabbed by: Justin A. Bedo (kennyb_guitar@yahoo.com)

Guitar tuning   EADGBe

Guitar chords

  A5 C5  F5  D5  G5 E5 Bb5 B5 F5* Em F#5 Am C  F  Dm
--x-x---x---x---x-x---x-x---x-x-x---0--0--1--1--|
--0--0---x---x---x-x---x-x---x-x-x---1--1--1--3--|
--x-x---10--7---x--9---2--x---x-x-x---2--0--2--2--|
--7--10--10--7---5--9---2--9---2--2--4---2--2--3--0--|
--7--10--8---5---5--7---1--9---2--2--4---0--3--x-x--|
--5--8---x---x---3--x---x--7---1--0--2---x-x-x-x--|

(Riff)
   C5       B5      A5     Em      F5*    F#5     G5..
e-------------------------------------------------x---|
B-------------------------------------------------x---|
G-------------------------------------------------x---|
D-------10------9-------7------2-------3------4---5---|
A----10---10--9---9---7---7--2---2---3---3--4---4-5---|
E--8--------7-------5------0-------1------2-------3---|

Guitar intro     Am  C  F  Dm x2
                 A5  C5 F5 D5 x3

Verse 1
     
A5  C5   F5
       
A5  C5   F5  D5

(riff----
From a hill 
        --------------------------------------
I could see all the rockets as they flew
        ---------------------)

A5  C5   F5    D5

A5  C5   F5   D5

(riff------
In the distance 
        -------------------------------------
The clouds were cracking and flashing
        -------------------------------------)
Mountains shaking with every explosion. 

Bridge

G5\ E5\ F5\ E5\    Bb5   F5*

G5\ E5\  F5\   E5\Bb5    F5*

G5\ E5\    F5\E5\Bb5   F5*  G5


Chorus

C5*  G5
A5   F5*
C5*  G5   A5   F5*
G5
C5\B5\ A5\   F5*\ G5
Em\   A5  C5 F5 D5 
A5  C5  F5  D5

Verse 2

A5   C5    F5
	
A5   C5    F5    D5
	
                (riff-----------------
	Soaring skies and lofty sierras
        -----------------------------------------)

A5  C5   F5

A5  C5   F5  D5
	
                (riff---
	So much noise
        --------------------------
	Nothing holds our attention
        ----------------------)
	

Bridge

G5\E5\    F5\E5\   Bb5   F5*
G5\E5\    F5\E5\  Bb5   F5*
G5\E5\    F5\E5\Bb5     F5*  G5


Chorus

Guitar outro    A5  C5  F5  D5 x2
                Am  C   F   Dm x2

Comments about this tab

No comments/corrections found. Add your own

Complimentary Christian Ringtones
Dadamobile and CGR have teamed up to bring your favorite Christian artists right to your phone. Sign up today and get 10 complementary ringtones!
Tab Country
Did you know CGR has a sister site w/ country guitar tabs? Well we do! Its called Tab Country. It has a great archive with a lot of country tabs.
Rockin Tabs
Are you looking for a site that has rock guitar tabs? Then Rockintabs.com is the place for you. It is a budding site with many rock guitar tabs. Submit your tab today.
Tab Gallery
Tab Gallery has a compilation of christian, rock, and country tabs all in one place. Come visit us.