Guitar Tabs
song title    band name

Join Us Today!

Don't strum alone...
be a part of the largest online Christian music community. Browse thousands of guitar tabs and chat w/ musicians like yourself.


It's Free!

Superchic[k] - One Girl Revolution

This tab has been rated a 1.75 out of 5 for accuracy. (4 votes)Sorry, but you must be logged in to rate this tab.
Click here to log-in, or you can click here to register.
(Registration is free)

All songs owned by corresponding publishing company. If you make copies of any song on this website, be sure to report your usage to CCLI.
Artist: Superchic[k]
Album: Karaoke Superstars (Buy this CD!)
Song: One Girl Revolution (Mob Action Remix)
Tabbed by jrice

There are 2 guitars. After the intro, which you can figure out for yourself,
the rest of the song uses heavy distortion.

Riff 1:

1st guitar: 
(Tune your bass string to a "C".)

C O---O-O-O-O-O-O-O-O-O-O-O-O-O-O-8-8-8-8-8-8-8-8-3-3-3-3-2-2-2-2-

C O-O-O-O-O-O-O-O-8-8-8-8-8-8-8-8-3-3-3-3-3-3-3-3-2-2-2-2-2-2-2-2- 
(repeat second line two more times)


2nd guitar:
(Same as first.)

d -------------------------------------------------------------------
A 3---3-3-3-3-3-1-1-3-3-5-5-5-5-5-6-6-6-6-6-6-6-----10-10-10---5-5-5-

d -----------------------------------------------------------------------
A 10-10-10-10-10-10-10-1-1-3-3-5-5-5-5-5-6-6-6-6-6-6-6-1-1-3-3-5-5-5-5-5-

d ----------------------------------5---5---5---5-----------------
A --5---5---5---5---6-6-6-6-6-6-6-------------------1-1-3-3-3-3-3-
(repeat third line once)


Riff 2:

2nd guitar:

C 12--12--12--10-10-10-10-12---12---10-10-10-10-12---12---10-10-10-10-12---12-
The rhythm isn't quite right, but if you listen to the CD you'll figure it out.


Riff 3:

1st guitar:

A ------------------------5-6-----
C O-O-O-------O---O-----------7---

A ------------------------5-6-----
C 8-8-8-------8---8-----------7---

A ------------------------5-6-----
C 5-5-5-------5---5pO---------7---

A --------------------------------
C 3-3-3-------3---2-2-2-2-2-2-2-2-

INTRO
RIFF 1 (chorus)
RIFF 2
RIFF 3 (verse)
RIFF 1
RIFF 3 (verse)
RIFF 1
RIFF 2
RIFF 3 (rap)
RIFF 1 (1st guitar play second line 5x, 2nd guitar play third line 4x)

If I made any huge mistakes, tell me at jrice@one.net. Thanks! 

Comments about this tab

aero! - 2005-06-21

um, maybe it's just me but im having a hard time understanding this tab. its a little weird, and unlike the standard ones.


farfromhim - 2005-06-27

I don't think this is right at all, but I don't have my guitar with me. This is what'd look like it "regular tablature."

Tuning:
e-B-G-D-A-C



e-----------------------------------------------------------------
B-----------------------------------------------------------------
G-----------------------------------------------------------------
D-----------------------------------------------------------------
A-----------------------------------------------------------------
C O---O-O-O-O-O-O-O-O-O-O-O-O-O-O-8-8-8-8-8-8-8-8-3-3-3-3-2-2-2-2-


e-----------------------------------------------------------------
B-----------------------------------------------------------------
G-----------------------------------------------------------------
D-----------------------------------------------------------------
A-----------------------------------------------------------------
C O-O-O-O-O-O-O-O-8-8-8-8-8-8-8-8-3-3-3-3-3-3-3-3-2-2-2-2-2-2-2-2-
(repeat second line two more times)


2nd guitar:
(Same as first.)

e--------------------------------------------------------------------
B--------------------------------------------------------------------
G--------------------------------------------------------------------
d -------------------------------------------------------------------
A 3---3-3-3-3-3-1-1-3-3-5-5-5-5-5-6-6-6-6-6-6-6-----10-10-10---5-5-5-
C--------------------------------------------------------------------

e------------------------------------------------------------------------
B------------------------------------------------------------------------
G------------------------------------------------------------------------
d -----------------------------------------------------------------------
A 10-10-10-10-10-10-10-1-1-3-3-5-5-5-5-5-6-6-6-6-6-6-6-1-1-3-3-5-5-5-5-5-
C------------------------------------------------------------------------


e-----------------------------------------------------------------
B-----------------------------------------------------------------
G-----------------------------------------------------------------
d ----------------------------------5---5---5---5-----------------
A --5---5---5---5---6-6-6-6-6-6-6-------------------1-1-3-3-3-3-3-
C-----------------------------------------------------------------


(repeat third line once)


Riff 2:

2nd guitar:

e-----------------------------------------------------------------------------
B-----------------------------------------------------------------------------
G-----------------------------------------------------------------------------
D-----------------------------------------------------------------------------
A-----------------------------------------------------------------------------
C 12--12--12--10-10-10-10-12---12---10-10-10-10-12---12---10-10-10-10-12---12-
The rhythm isn't quite right, but if you listen to the CD you'll figure it out.


Riff 3:

1st guitar:
e------------------------------------------------------------------------
B------------------------------------------------------------------------
G------------------------------------------------------------------------
d -----------------------------------------------------------------------
A ------------------------5-6--------------------------------------------
C O-O-O-------O---O-----------7------------------------------------------

e------------------------------------------------------------------------
B------------------------------------------------------------------------
G------------------------------------------------------------------------
d -----------------------------------------------------------------------
A ------------------------5-6--------------------------------------------
C 8-8-8-------8---8-----------7------------------------------------------

e------------------------------------------------------------------------
B------------------------------------------------------------------------
G------------------------------------------------------------------------
d -----------------------------------------------------------------------
A ------------------------5-6--------------------------------------------
C 5-5-5-------5---5pO---------7------------------------------------------

e------------------------------------------------------------------------
B------------------------------------------------------------------------
G------------------------------------------------------------------------
d -----------------------------------------------------------------------
A -----------------------------------------------------------------------
C 3-3-3-------3---2-2-2-2-2-2-2-2----------------------------------------


guitarforgod23 - 2005-11-06

original guy,
yeah its a little unorthidox (i cant spell) but i think its right

peace in Christ


guitar_freakk09 - 2006-06-02

this tab is not accurate i will tab it myself. i think this song is played in drop d b/c it has really heavy distortion.


guitarpix7 - 2007-01-06

I think that the tab IS right! i m not sure i only play electric guitar but I think this is tab for base guitar.


guitarpix7 - 2007-01-06

I think that the tab IS right! i m not sure i only play electric guitar but I think this is tab for base guitar.


Add a comment/correction

Complimentary Christian Ringtones
Dadamobile and CGR have teamed up to bring your favorite Christian artists right to your phone. Sign up today and get 10 complementary ringtones!
Tab Country
Did you know CGR has a sister site w/ country guitar tabs? Well we do! Its called Tab Country. It has a great archive with a lot of country tabs.
Rockin Tabs
Are you looking for a site that has rock guitar tabs? Then Rockintabs.com is the place for you. It is a budding site with many rock guitar tabs. Submit your tab today.
Tab Gallery
Tab Gallery has a compilation of christian, rock, and country tabs all in one place. Come visit us.