Guitar Tabs
song title    band name

Join Us Today!

Don't strum alone...
be a part of the largest online Christian music community. Browse thousands of guitar tabs and chat w/ musicians like yourself.


It's Free!

Audio Adrenaline - DC-10

This tab has been rated a 4.83 out of 5 for accuracy. (6 votes)Sorry, but you must be logged in to rate this tab.
Click here to log-in, or you can click here to register.
(Registration is free)

All songs owned by corresponding publishing company. If you make copies of any song on this website, be sure to report your usage to CCLI.
DC-10
Audio Adrenaline
UNDERDOG
C 1999 Up In The Mix Music (BMI)

Transcribed by Andrew Schell     sonnyschell@hotmail.com

NOTE:  READ Tab legend.  It will make everything clearer.
I tabbed this using Power Tab Editor and I think everything is very close to 
correct.  If anyone can find any corrections, send them to me.  TP means to 
play the note rapidly!!


        A9            B7       C7       E7
x 12 11 12 12 12   x2120x   x3230x   x767xx

109 bpm

INTRO
Gtr I          A9
|-12\---12\-|--/12-12-12-12-12-12-12\-|-12-----(12)---------------------|
|-12\---12\-|--/12-12-12-12-12-12-12\-|-15b17--(15)-12-12---------12----|
|-12\---12\-|--/12-12-12-12-12-12-12\-|-------------14-14b16r(14)p12----|
|-----------|--/11-11-11-11-11-11-11\-|------------------------------14-|
|-----------|--/12-12-12-12-12-12-12\-|---------------------------------|
|-----------|-------------------------|---------------------------------|

|-------12--x-12--x-12--x-12--x-12--|
|-------12--x-12--x-12--x-12--x-12--|
|-14b16-----------------------------|
|-----------------------------------|
|-----------------------------------|
|-----------------------------------|

|-------12-12-12-------12-12-12-------12-12-12-12-12-12-12-|
|-------12-12-12-------12-12-12-------12-12-12-12-12-12-12-|
|-14b16----------14b16----------14b16----------12-12-12-12-|
|----------------------------------------------11-11-11-11-|
|----------------------------------------------------------|
|----------------------------------------------------------|

|-------------------||
|-------------------||
|-------------------||
|-------------------||
|-------------------||
|-0-4-5-6-7-6-5-4---||

VERSE I
|-----------------------|-----------------|-----------------|
|-----------------------|-----------------|-----------------|
|-----------------------|-----------------|-----------------|
|-----------------------|-----------------|-----2-4-5-4-2---|
|-----2-4-5-5-4-4-2-2---|-----2-4-5-4-2---|-0-4-----------4-|
|-0-4-----------------4-|-0-4-----------4-|-----------------|

                    B7      C7   B7
|-----------------|------------------|--------------------------|
|-----------------|---0-0-----0---0--|--------------------------|
|-----------------|---2-2---3-3-3-2--|--------------------------|
|-----------------|---1-1-1-2-2-2-1--|--------------------------|
|-----2-4-5-4-2---|-2-----2-3-3-3-2--|--------------------------|
|-0-4-----------4-|------------------|-0-0-4-4-5-5-6-6-7-6-5-4--|

                                                          A9
|-----------------------|-----------------|-------------------|
|-----------------------|-----------------|-------------------|
|-----------------------|-----------------|---------------12\-|
|-----------------------|-----------------|-----2-4-5-4-2-11\-|
|-----2-4-5-5-4-4-2-2---|-----2-4-5-4-2---|-0-4-----------12\-|
|-0-4-----------------4-|-0-4-----------4-|-------------------|

                    B7      C7   B7
|-----------------|------------------|--------------------------||
|-----------------|---0-0-----0---0--|--------------------------||
|-----------------|---2-2---3-3-3-2--|--------------------------||
|-----------------|---1-1-1-2-2-2-1--|--------------------------||
|-----2-4-5-4-2---|-2-----2-3-3-3-2--|--------------------------||
|-0-4-----------4-|------------------|-0-0-4-4-5-5-6-6-7-6-5-4--||

CHORUS
|-----------------|-----------------------|-----------------|
|-----------------|--12-12-----12-12-12---|-----------------|
|-----------------|--14-12h13--14-12-13---|-----------------|
|-----------------|-----------------------|-2-4-2-4-5-4-2-4-|
|-2-4-2-4-5-4-2-4-|-----------------------|-----------------|
|-----------------|-----------------------|-----------------|

|----------------------------------|
|-12-12-12-12-13-13-13-13-14-x-15--|
|-13-13-13-13-14-14-14-14-15-x-16--|
|----------------------------------|
|----------------------------------|
|----------------------------------|

|----------------|--------------------------||
|---0------------|--------------------------||
|---2------------|--------------------------||
|---1--4-5-4-2-4-|--------------------------||
|-2--------------|--------------------------||
|----------------|-0-0-4-4-5-5-6-6-7-6-5-4--||

SOLO
                      A9
|----12\----12\--|---/12-12-12-12-12-12-12\--|
|----12\----12\--|---/12-12-12-12-12-12-12\--|
|----12\----12\--|---/12-12-12-12-12-12-12\--|
|----------------|---/11-11-11-11-11-11-11\--|
|----------------|---/12-12-12-12-12-12-12\--|
|-0--------------|---------------------------|

|--12-----(12)---------------------|
|--15b17--(15)-12-12---------12----|
|--------------14-14b16r(14)p12----|
|-------------------------------14-|
|----------------------------------|
|----------------------------------|

|--12-----(12)---------------------|
|--15b17--(15)-12-12---------12----|
|--------------14-14b16r(14)p12----|
|-------------------------------14-|
|----------------------------------|
|----------------------------------|

|-------12--------12--------12--------12--------12--|
|-------12--------12--------12--------12--------12--|
|-14b16-----14b16-----14b16-----14b16-----14b16-----|
|---------------------------------------------------|
|---------------------------------------------------|
|---------------------------------------------------|

|--12-------12--12--12-------12--|
|--12h14p12-14--14--12h14p12-14--|
|--------------------------------|
|--------------------------------|
|--------------------------------|
|--------------------------------|

   TP                   TP                TP   TP   TP
|-------------12-----|-----------------|---------------------|
|-------------15b17--|-------------12--|---------------------|
|--------------------|-------------12--|---------------------|
|-12\-5/6------------|-12\-5/6-----11--|-12\--12\--12\--6----|
|-14\-6/7------------|-14\-6/7-----12--|-14\--14\--14\--7----|
|--------------------|-----------------|---------------------|

  TP
|--------|-12------------------|--------12--x-12--x-12--x-12--x-12-||
|--------|-15b17--12----12-----|--------12--x-12--x-12--x-12--x-12-||
|--------|--------14b16-14b16--|--14b16----------------------------||
|--------|---------------------|-----------------------------------||
|--------|---------------------|-----------------------------------||
|-0------|---------------------|-----------------------------------||

CHORUS II
|-----------------|------------------------|-----------------|
|-----------------|--12-12------12-12-12---|-----------------|
|-----------------|--14-12h13---14-12-13---|-----------------|
|-----------------|------------------------|-2-4-2-4-5-4-2-4-|
|-2-4-2-4-5-4-2-4-|------------------------|-----------------|
|-----------------|------------------------|-----------------|

                                                      E7
|----------------------------------|----------------|----------|
|-12-12-12-12-13-13-13-13-14-x-15--|---0------------|----------|
|-13-13-13-13-14-14-14-14-15-x-16--|---2------------|-7--------|
|----------------------------------|---1--4-5-4-2-4-|-6--------|
|----------------------------------|-2--------------|-7--------|
|----------------------------------|----------------|-0--------|

BRIDGE
  E7         E7         A9
|----------|----------|--------------|----------|
|----------|----------|--------------|----------|
|-7--------|-7--------|-12-----------|-7--------|
|-6--------|-6--------|-11------/12--|-6--------|
|-7--------|-7--------|-12------/14--|-7--------|
|-0--------|-0--------|--------------|----------|

  B7      C7    B7
|------------------|----------|-------|--------------------------||
|---0-0-----0---0--|----------|-DRUM--|--------------------------||
|---2-2---3-3-3-2--|-7--------|-FILL--|--------------------------||
|---1-1-1-2-2-2-1--|-6--------|-------|--------------------------||
|-2-----2-3-3-3-2--|-7--------|-6 Bars|--------------------------||
|------------------|-0--------|-------|-0-0-4-4-5-5-6-6-7-6-5-4--||

END CHORUS
|-----------------|-------12--------12--------12--------12----------|
|-----------------|-------12--------12--------12--------12----------|
|-----------------|-14b16-----14b16-----14b16-----14b16-----14b16---|
|-----------------|-------------------------------------------------|
|-2-4-2-4-5-4-2-4-|-------------------------------------------------|
|-----------------|-------------------------------------------------|

                                         E7
|-----------------|--------------------------------|
|-----------------|-15b17==15pb17r(15)\------------|
|-----------------|----------------------7--7-x-x--|
|-2-4-2-4-5-4-2-4-|----------------------6--6-x-x--|
|-----------------|----------------------7--7-x-x--|
|-----------------|--------------------------------|

  B7      C7  B7                           E7
|-----------------|----------------------|------*|
|---0-0-------0---|----------------------|------*|
|---2-2-x-3-x-2---|----------------------|-7----*|
|---1-1-x-2-x-1---|-2--------------------|-6----*|
|-2-2-2-2-3-x-2---|---4-2---2-4-6-7------|-7----*|
|-----------------|-------4--------------|------*|


Tablature Legend
----------------
h   - hammer-on
p   - pull-off
b   - bend
pb  - pre-bend
r   - bend release (if no number after the r, then release immediately)
/\  - slide into or out of (from/to "nowhere")
~   - vibrato
TP  - trem. picking (play note very rapidly)
=   - hold bend; also acts as connecting device for hammers/pulls


************************************************************************
* Generated using Power Tab Editor by Brad Larsen - 
http://powertab.guitarnetwork.org *
************************************************************************

Comments about this tab

sKaRoCkS - 2005-10-05

this is the best tab i've ever seen


iducedmypants - 2006-04-01

great tab, helps alot and god bless


rawk4god715 - 2007-04-17

luv the tab and the song! audio a rocks 4ever!


Add a comment/correction

Complimentary Christian Ringtones
Dadamobile and CGR have teamed up to bring your favorite Christian artists right to your phone. Sign up today and get 10 complementary ringtones!
Tab Country
Did you know CGR has a sister site w/ country guitar tabs? Well we do! Its called Tab Country. It has a great archive with a lot of country tabs.
Rockin Tabs
Are you looking for a site that has rock guitar tabs? Then Rockintabs.com is the place for you. It is a budding site with many rock guitar tabs. Submit your tab today.
Tab Gallery
Tab Gallery has a compilation of christian, rock, and country tabs all in one place. Come visit us.