Guitar Tabs
song title    band name

Join Us Today!

Don't strum alone...
be a part of the largest online Christian music community. Browse thousands of guitar tabs and chat w/ musicians like yourself.


It's Free!

Delirious - God You Are My God

This tab has been rated a 5.00 out of 5 for accuracy. (3 votes)Sorry, but you must be logged in to rate this tab.
Click here to log-in, or you can click here to register.
(Registration is free)

All songs owned by corresponding publishing company. If you make copies of any song on this website, be sure to report your usage to CCLI.
God You Are My God
Delirious?
CD: Glo
c2000 Curious? Music
Tabbed by Steve Cruickshank
(postlambjam@hotmail.com)


Guitars have capo on 2, tab's all relative to that, can you dig it?


Electric:
e---3------3----3-3-3-3----3---------------------------------
B---3------2----1-1-1-1----3---------------------------------
G---0-----------0-0-0-0----0---------------------------------
D---0-----------0-0-0-0----0---------------------------------
A------------------------------------------------------------
E---3----------------------3---------------------------------
    Gno3  G(b5) Gsus       Gno3



Verse 1:
Gno3  Gsus  Gno3

Riff played before chorus:
e-----------------------------
B-----------------------------
G---------0---0---------------
D---0h2-3---2---0-------------
A-----------------------------
E-----------------------------




Chorus:
Am7  C2  Gno3

e---3----3-----3--------------------------------------------
B---3----3-----3--------------------------------------------
G---2----0-----0--------------------------------------------
D---2----2-----0--------------------------------------------
A---0----3--------------------------------------------------
E--------------3--------------------------------------------
    Am7  C2    Gno3



Verse 2:
Gno3  G(b5)  Gsus  Gno3

Chorus 2:

Bridge: (acoustic with capo on 2)
D/F#  C2
D/F#  C2
Em  D  A/C#
C  C2

Bridge: (acoustic)
e----------------------------------------------------------
B----------3------------3-------------3------------3-------
G--------2------------0-------------2------------0---------
D------0------------2-------------0------------2-----------
A-----------------3--------------------------3-------------
E---2--------------------------2---------------------------
    D/F#          C2           D/F#          C2

e----------------------------------------------------------
B---------3-----------------3------------------------------
G-------0-------------2--2-------2-------------------------
D-----2---------------0--0---------------------------------
A---2----------------------------4-------------------------
E--------------0-------------------------------------------
    Em7               D          A/C#

e------------------0---------------------------------------
B---------1--------3---------------------------------------
G-------0----------0---------------------------------------
D-----2------------2---------------------------------------
A---3--------------3---------------------------------------
E----------------------------------------------------------
    C              C2


Verse 3:
Chorus 3:
[repeat chorus 2]
Chorus 4:

Comments about this tab

No comments/corrections found. Add your own

Complimentary Christian Ringtones
Dadamobile and CGR have teamed up to bring your favorite Christian artists right to your phone. Sign up today and get 10 complementary ringtones!
Tab Country
Did you know CGR has a sister site w/ country guitar tabs? Well we do! Its called Tab Country. It has a great archive with a lot of country tabs.
Rockin Tabs
Are you looking for a site that has rock guitar tabs? Then Rockintabs.com is the place for you. It is a budding site with many rock guitar tabs. Submit your tab today.
Tab Gallery
Tab Gallery has a compilation of christian, rock, and country tabs all in one place. Come visit us.