Guitar Tabs
song title    band name

Join Us Today!

Don't strum alone...
be a part of the largest online Christian music community. Browse thousands of guitar tabs and chat w/ musicians like yourself.


It's Free!

This tab has been rated a 5.00 out of 5 for accuracy. (1 vote)Sorry, but you must be logged in to rate this tab.
Click here to log-in, or you can click here to register.
(Registration is free)

All songs owned by corresponding publishing company. If you make copies of any song on this website, be sure to report your usage to CCLI.
Down by Radial Angel
From Radial Angel’s self titled release
Tabbed by Jeremy Dolezel and Jared Taber
2000 Radial Angel/Thin King Entertainment/ASCAP
FOR PERSONAL USE ONLY

The beginning riff uses a toggle switch moving it up and down with the neck pick
up off and the bridge pick up on.  You hammer on the first notes then let ring
as you move the toggle switch till you hit the little run and you hammer and
pull off.  No strumming is done on the intro or verses.

intro and verses
E----------------|----------------|----------------|---------------------------
B----------------|----------------|----------------|---------------------------
G----------------|----------------|----------------|---------------------------
D---4--4--4--4---|---7--7--7--7---|---4--4--4--4---|---------2--3--2----------- 
A---4--4--4--4---|---7--7--7--7---|---4--4--4--4---|---2--3-----------3--2--0--
E---2--2--2--2---|---5--5--5--5---|---2--2--2--2---|---------------------------


Chorus 
E----------------|-----------------|----------------|--------------------------
B----------------|-----------------|----------------|--------------------------
G----------------|-----------------|----------------|--------------------------
D---4--4--4--4---|---/9--9--9--9---|---7--7--7--7---|---/9--9--9--9------------
A---4--4--4--4---|---/9--9--9--9---|---7--7--7--7---|---/9--9--9--9------------
E---2--2--2--2---|---/7--7--7--7---|---5--5--5--5---|---/7--7--7--7------(x)(2)

(first time you go into the chorus both guitars plays this, the rest of the
chorus’ 2nd guitar does this while the 1st guitar does the lead- the part at the
end is natural harmonic 2nd guitar hits right before the bridge)


1st guitars lead during chorus
E--------------|-----------------------------------------|----------------19---|
B---17(b)-16---|---16-17-16-17-19-16-17-19-17-16-17-16---|---16-17-16-17-------|
G--------------|---------------------------------------18|---------------------|
D--------------|-----------------------------------------|---------------------|
A--------------|-----------------------------------------|---------------------|
E--------------|-----------------------------------------|---------------------|


Bridge
E--(2)---(2)-(2)-(2)--|--(5)-(5)-(5)---(5)-(5)-(5)--|--(2)---(2)-(2)-(2)--|
B--(2)---(2)-(2)-(2)--|--(5)-(5)-(5)---(5)-(5)-(5)--|--(2)---(2)-(2)-(2)--|
G--(3)---(3)-(3)-(3)--|--(6)-(6)-(6)---(6)-(6)-(6)--|--(3)---(3)-(3)-(3)--|
D---4-----4---4---4---|---7---7---7-----7---7---7---|---4-----4---4---4---|
A---4-----4---4---4---|---7---7---7-----7---7---7---|---4-----4---4---4---|
E---2-----2---2---2---|---5---5---5-----5---5---5---|---2-----2---2---2---|

E--(X)-(3)---(3)-(X)-(3)-(3)--|
B--(X)-(5)---(5)-(X)-(5)-(5)--|
G---X---5-----5---X---5---5---|
D---X---5-----5---X---5---5---|
A---X---3-----3---X---3---3---|
E--(X)-(3)---(3)-(X)-(3)-(3)--|
(the notes in parentheses are only played by 1st guitar)


Guitar solo after bridge
E--------------------|--10-12-12b-12-10v--|--12-13-12-13-15-13-12-12--|
B--10-12-12b-12-10v--|--------------------|---------------------------|
G--------------------|--------------------|---------------------------|
D--------------------|--------------------|---------------------------|
A--------------------|--------------------|---------------------------|
E--------------------|--------------------|---------------------------|

E--13-12-13-12--|
B---------------|
G---------------|
D---------------|
A---------------|
E---------------|


/ = slide
b= bend
v= vibrato

That’s pretty much it, all the parts are 100% correct because the musicians
themselves tabbed it out.  If you wanna cheat on the song you can use a delay
pedal but they play the song with a toggle switch as explained above.  If you
would like other songs tabbed by Radial Angel email them at
Band@RadialAngel.com.  

Comments about this tab

No comments/corrections found. Add your own

Complimentary Christian Ringtones
Dadamobile and CGR have teamed up to bring your favorite Christian artists right to your phone. Sign up today and get 10 complementary ringtones!
Tab Country
Did you know CGR has a sister site w/ country guitar tabs? Well we do! Its called Tab Country. It has a great archive with a lot of country tabs.
Rockin Tabs
Are you looking for a site that has rock guitar tabs? Then Rockintabs.com is the place for you. It is a budding site with many rock guitar tabs. Submit your tab today.
Tab Gallery
Tab Gallery has a compilation of christian, rock, and country tabs all in one place. Come visit us.