Guitar Tabs
song title    band name

Join Us Today!

Don't strum alone...
be a part of the largest online Christian music community. Browse thousands of guitar tabs and chat w/ musicians like yourself.


It's Free!

This tab has been rated a 3.25 out of 5 for accuracy. (4 votes)Sorry, but you must be logged in to rate this tab.
Click here to log-in, or you can click here to register.
(Registration is free)

All songs owned by corresponding publishing company. If you make copies of any song on this website, be sure to report your usage to CCLI.
Author/Artist: Rick Founds
Title: Lord I Lift Your Name on High
Transcribed by: Matt Gates
Email: aslane@juno.com

This is some lead stuff that I came up with for this
 praise song.  This is a very bluesy rock version of 
the song with a solo.  The solo is from an old Holy
Soldier song called Dead End Drive.  It is totally 
optional.  I just threw it in for showing off purposes.
I wish you could hear the rhythm that I put with it but 
if you practice it enough you will figure it out.  If you 
have a wah pedal this song really benefits from it.
This is in the key of G.  Hope you enjoy.                                                  
                                                               

------------------------------------------------------------------------------
------------------------------------------------------------------------------
--------------------------------------7--9b11--11--11--11--11r9--7h9--7vvvvv--
---------------------------------7h9------------------------------------------
------------------------------------------------------------------------------
------------------------------------------------------------------------------
 Lord I lift Your name on high           hold bend----------                  

-------------------------------------------10---------------------------------
------------------------------------10b12-------12r10-----8h10--8vvvvvvvv-----
------------------------------------------------------------------------------
------------------------------------------------------------------------------
------------------------------------------------------------------------------
------------------------------------------------------------------------------
 Lord I love to sing Your praises     hold bend----                           

------------------------------------------------------------------------------
------------------------------------------------------------------------------
---------------------------------------------------------5--------------------
----------------------------------------------5--7--5h7-----5h7p5vvvvvvv------
--------------------------------------3-5-5/7---------------------------------
------------------------------------5-----------------------------------------
 I'm so glad Your're in my life     pm------------                            

------------------------------------------------------------------------------
-------------------------------------------------------15---------------------
--------------------------------------------12--14b16------16r14vvvvvvv-------
-------------------------------------12h14------------------------------------
------------------------------------------------------------------------------
------------------------------------------------------------------------------
 I'm so glad You came to save us                  hold bend---                

---------------/15--15--15--15--15-------------------------17b19-19--19r17----
---------------/15--15--15--15--15--15--15vvvv--------15----------------------
------------------------------------------------------------------------------
------------------------------------------------------------------------------
------------------------------------------------------------------------------
------------------------------------------------------------------------------
 You came from heaven                to earth          to show hb--- the way  

-15h17p15vvv----/15--15--15--15--15------------------------17b19-19--19r17----
----------------/15--15--15--15--15-----15--15vvvv----15----------------------
------------------------------------------------------------------------------
------------------------------------------------------------------------------
------------------------------------------------------------------------------
------------------------------------------------------------------------------
                 From the earth       to the cross     my debt hb---- to pay  

-15h17p15vvvv-------------/15--15--15--15--15---------------------------------
--------------------------/15--15--15--15--15---15--15vvv------15--15--15-----
------------------------------------------------------------------------------
------------------------------------------------------------------------------
------------------------------------------------------------------------------
------------------------------------------------------------------------------
                 From the cross to the grave                  from the grave  

-/12--12--12--12--12----------------------------------------------------------
-/13--13--13--13--13--13--13vvvvv---------------------------------------------
----------------------------------------------12--14b16--16--16--16--16r14----
---------------------------------------12h14----------------------------------
------------------------------------------------------------------------------
------------------------------------------------------------------------------
               to the sky            Lord I lift Your name on high hb---      

--------------------15--------------------------------------------------------
-------------------------15----13---12vvvvvv---------------------13-12h13p12--
--12h14--12vvvvv---------------------------------------12---14b16-------------
------------------------------------------------12h14-------------------------
------------------------------------------------------------------------------
------------------------------------------------------------------------------
                                                                              

---------------------------------------------------------x\-------------------
---------------------------------------------------------x\-------------------
--14---12---12vvvvvvv------------------------------------x\-------------------
---------------------------------------------------------x\-------------------
---------------------------------------------------------x\----/7vvvvv--------
---------------------------------------------------------x\-------------------
                        Solo:  slow the tempo down a bit w/wah as a filter    

------------------------------------------------------------------------------
------------------------------------------------------------------------------
------------------------------------------------------------------------------
------------------------------------------------------------------------------
--7/14\10--10\9--9\7vvvvv\/5vvvvvv-5/7\5-3vvvvvv------------------------------
---------------------------------------------------/12-12-12-12-14-14-14-14---
                                                     pm very fast------------ 

------------------------------------------------------------------------------
------------------------------------------------------------------------------
--------------------------------------------------12-------12-----------------
--------------------------------------12-12-12-12------14------14b16r14b16----
--------------12-12-12-12-14-14-14-14-----------------------------------------
--15-15-15-15-----------------------------------------------------------------
 pm----------------------------------                                  hb---- 

------------------------------------------------------------12h14h15--t17p15--
------------------------------15b17t18-----r15vvvvvv---/12--------------------
-------r14p12h14vvvvvvvv------------------------------------------------------
------------------------------------------------------------------------------
------------------------------------------------------------------------------
------------------------------------------------------------------------------
 -----                         hold bend---                           fast--- 

-t17p15-t17p14-t17p14-t17p12-t17p12-------------------------------------------
-------------------------------------t17p15-t17p15-t17p13-t17p13-t17-p12------
------------------------------------------------------------------------------
------------------------------------------------------------------------------
------------------------------------------------------------------------------
------------------------------------------------------------------------------
 fast------------------------------------------------------------------------ 

---------------------------12-----------------------------12\-----------------
--t17p12-------------12----15b15--------------------------12\-----------------
-----------14p12h14-----------------------------------------------------------
------------------------------------------------------------------------------
------------------------------------------------------------------------------
------------------------------------------------------------------------------
 fast---------------------   hold bend-------------------  end solo           

------------------------------------------------------------------------------
------------------------------------------------------------------------------
--------------------------------------------19--21b23--23--23r21--19h21-19vv--
-------------------------------------19h21------------------------------------
------------------------------------------------------------------------------
------------------------------------------------------------------------------
  Lord I lift Your name on high                   hold bend--                 

-------------------------------------------22-------22------------------------
------------------------------------22b24-----22b24----24r22-20vvvvvvv--------
------------------------------------------------------------------------------
------------------------------------------------------------------------------
------------------------------------------------------------------------------
------------------------------------------------------------------------------
 Lord I love to sing Your praises                                             

------------------------------------------------------------------------------
------------------------------------------------------------------------------
------------------------------------------------------------------------------
---------------------------------------------------17--19-19b21r19-17h19-17v--
------------------------------------15--17--17/19-----------------------------
---------------------------------17-------------------------------------------
 I'm so glad You're in my life    pm--------------------                      

--------------------------19-17-15-19-17-15-19-15-19vvvvvvvvv-----------------
------------------------------------------------------------------------------
------------------------------------------------------------------------------
------------------------------------------------------------------------------
------------------------------------------------------------------------------
------------------------------------------------------------------------------
 I'm so glad You came to save us                                              

--------15------17------17------15------15------19------17------15------------
---/15------15------15------15------15------15------15------15------15--------
------------------------------------------------------------------------------
------------------------------------------------------------------------------
------------------------------------------------------------------------------
------------------------------------------------------------------------------
 You came from heaven             to earth     to show the way                

---15------17------17------15------15------19------17------15-----------------
-------15------15------15------15------15------15------15---------------------
------------------------------------------------------------------------------
------------------------------------------------------------------------------
------------------------------------------------------------------------------
------------------------------------------------------------------------------
  from the earth            to the cross   my debt to pay                     

------15------17------17------15------15------19------17------12--------------
--15------15------15------15------15------15------15------15------13----------
------------------------------------------------------------------------------
------------------------------------------------------------------------------
------------------------------------------------------------------------------
------------------------------------------------------------------------------
 from the cross       to the grave            from the grave to the sky       

-----------------------------------------------------------15-----------------
---------------------------------------------------------------15-15-13-12vv--
-----------12--14b16-16--16-16-15r14--12h14---12vvvvvvvvv---------------------
----12h14---------------------------------------------------------------------
------------------------------------------------------------------------------
------------------------------------------------------------------------------
 Lord I lift Your name on high                                                

------------------------------------------------------------------------------
------------------15----------12h13p12----------------------------------------
----------12--14------14--12------------14--12-12vvvvvvvv---------------------
---12h14----------------------------------------------------------------------
------------------------------------------------------------------------------
------------------------------------------------------------------------------
 Lord I lift Your name on high                                                

------------------------------------------------------------------------------
-----------------15---------15------------------------------------------------
---------12--14-----14--12------14--12-12vvvvvvvvvvv----14--12-----12---------
--12h14--------------------------------------------------------14-----14------
------------------------------------------------------------------------------
------------------------------------------------------------------------------
 Lord I lift Your name on high                        end lick accelerando    

------------------------------------------------------------------------------
------------------------------------------------------------------------------
------------------------------------------------------------------------------
--12h14p12------12------------------------------------------------------------
------------14------14--12h14p12------12--------------------------------------
----------------------------------15------15---12vvvvvvvvvvvvvvvvv------------

Comments about this tab

PeterRoberts - 2005-05-25

Hi there. I pfere to see this tabd more for an electric acoustic. It really is a beutiful praise song


Add a comment/correction

Complimentary Christian Ringtones
Dadamobile and CGR have teamed up to bring your favorite Christian artists right to your phone. Sign up today and get 10 complementary ringtones!
Tab Country
Did you know CGR has a sister site w/ country guitar tabs? Well we do! Its called Tab Country. It has a great archive with a lot of country tabs.
Rockin Tabs
Are you looking for a site that has rock guitar tabs? Then Rockintabs.com is the place for you. It is a budding site with many rock guitar tabs. Submit your tab today.
Tab Gallery
Tab Gallery has a compilation of christian, rock, and country tabs all in one place. Come visit us.