Guitar Tabs
song title    band name

Join Us Today!

Don't strum alone...
be a part of the largest online Christian music community. Browse thousands of guitar tabs and chat w/ musicians like yourself.


It's Free!

Juliana Theory, The - This Is Your Life

This tab has not yet been rated for accuracy.Sorry, but you must be logged in to rate this tab.
Click here to log-in, or you can click here to register.
(Registration is free)

All songs owned by corresponding publishing company. If you make copies of any song on this website, be sure to report your usage to CCLI.
Song: This is your life
Band: The Juliana Theory
CD: Emotion is Dead
Copyright: 2000 No you donít we own them
Tabbed by: Bryan


Iím not sure if this is all correct but at least it will
give you a good idea of how to play this song. On the cd
they use strings, drums, and bass in the verses with very
little guitar at all. I just tabbed out the main riff
which is also the intro.

Main riff:
e|--------------------------
B|--------------------------
G|--9-6--7-6---9-6--7-6-----
D|-----------7----------7---
A|--------------------------
E|--------------------------

When you get to the chorus it goes like this...
A 
e|--------------------------
B|--------------------------
G|--------------------------
D|--7--7--7--7-7-7-7--7--7--
A|--7--7--7--7-7-7-7--7--7--
E|--5--5--5--5-5-5-5--5--5--

Play this four times, then..

e|--------------------------------------------------
B|--------------------------------------------------
G|--------------------------------------------------
D|--4--4--4--2-2-2-2--2--2--4--4--4--2-2-2-2--2--2--
A|--4--4--4--2-2-2-2--2--2--4--4--4--2-2-2-2--2--2--
E|--2--2--2--0-0-0-0--0--0--2--2--2--0-0-0-0--0--0--

Then in the second verse the chords for the end of it go
like this..
A  Bm  D  A  E  D

Then back to the chorus where it ends.

Another great song by TJT. These guys are awesome. Any 
corrections? Feel free to write me at shortstop128@juno.com

Comments about this tab

No comments/corrections found. Add your own

Complimentary Christian Ringtones
Dadamobile and CGR have teamed up to bring your favorite Christian artists right to your phone. Sign up today and get 10 complementary ringtones!
Tab Country
Did you know CGR has a sister site w/ country guitar tabs? Well we do! Its called Tab Country. It has a great archive with a lot of country tabs.
Rockin Tabs
Are you looking for a site that has rock guitar tabs? Then Rockintabs.com is the place for you. It is a budding site with many rock guitar tabs. Submit your tab today.
Tab Gallery
Tab Gallery has a compilation of christian, rock, and country tabs all in one place. Come visit us.