Guitar Tabs
song title    band name

Join Us Today!

Don't strum alone...
be a part of the largest online Christian music community. Browse thousands of guitar tabs and chat w/ musicians like yourself.


It's Free!

Switchfoot - I Turn Everything Over

This tab has been rated a 3.33 out of 5 for accuracy. (3 votes)Sorry, but you must be logged in to rate this tab.
Click here to log-in, or you can click here to register.
(Registration is free)

All songs owned by corresponding publishing company. If you make copies of any song on this website, be sure to report your usage to CCLI.
Song: I Turn Everthing Over
Artist: Switchfoot 
Album: New Way To Be Human
Words and music by Jonathon Foreman
Copyright 1999 MeadowgreenMusic / Sugar Pete Songs / ASCAP


The tab that was up was right except for the verse. This is what
I think he plays.

e----------------------------------------------------
B----------------------------------------------------
G--9--------------9-------------9-----9---9----------
D--9--------------9-------------9-----9---9----------
A--7--------------6-------------------0--------------
E-------------------------------9---------7----------


and etc., etc.  just keep playing that riff until the pre-chorus.
thats all!
bye, and god bless

Comments about this tab

Jetix - 2005-02-14

if you could possibly send me those tabs @ space_potato7@hotmail.com cuz i didnt get them while they were up


supaduk - 2005-08-28

Way off buddy, try it like this:

e-00-0-0-00000000-00000000-77777777-11(fast 8x)-12(fast 8x)-------------------|
B-55-7-9-55555555-88888888-55555555-10(fast 8x)-10(fast 8x)-------------------|
G-----------------99999999----------------------------------------------------|
D-----------------------------------------------------------------------------|
A-----------------------------------------------------------------------------|
E-----------------------------------------------------------------------------|
Then it goes to the last chorus.

This 100% correct because I played it with the song


Basshammer2000 - 2005-10-01

that doesn't really mean it's right


trumpetswan - 2006-06-01

The chords are perfect!!!!
I’ve listened to this song so many times and this tab is totally accurate except for on thing. The notes on the E and A strings come before the notes on the D and G strings. Here’s the strum pattern.
G----9---------9----------9-------9----9----------
D----9---------9----------9-------9----9----------
A--7---------6------------------0---------------
E-----------------------9------------7----------
The notes on the E and A strings have the lower sound and the 9th fret notes on the strings D and G have that high ska sound.
Sweet tab


Add a comment/correction

Complimentary Christian Ringtones
Dadamobile and CGR have teamed up to bring your favorite Christian artists right to your phone. Sign up today and get 10 complementary ringtones!
Tab Country
Did you know CGR has a sister site w/ country guitar tabs? Well we do! Its called Tab Country. It has a great archive with a lot of country tabs.
Rockin Tabs
Are you looking for a site that has rock guitar tabs? Then Rockintabs.com is the place for you. It is a budding site with many rock guitar tabs. Submit your tab today.
Tab Gallery
Tab Gallery has a compilation of christian, rock, and country tabs all in one place. Come visit us.