Guitar Tabs
song title    band name

Join Us Today!

Don't strum alone...
be a part of the largest online Christian music community. Browse thousands of guitar tabs and chat w/ musicians like yourself.


It's Free!

Superchic[k] - Barlow Girls

This tab has been rated a 3.83 out of 5 for accuracy. (6 votes)Sorry, but you must be logged in to rate this tab.
Click here to log-in, or you can click here to register.
(Registration is free)

All songs owned by corresponding publishing company. If you make copies of any song on this website, be sure to report your usage to CCLI.
Barlow Girls
by Superchic[k]
2001 Corfor Music (ASCAP)

Intro x2
Fill A
F#  G#   C#
---------------------------
---------------------------
------------6--------------
--4/6--4/6--6--------------
--4/6--4/6--4--------------
--2/4--2/4-----------------

Verse 1: Play Fill A 4 times then 
G# D# A# C# x7  
G#   D# F D#     C#
Chorus 1: -------------------------------------------
    x2    -------------------------------------------
          -------8-10-8------6-----------------------
          --6----8-10-8-x3---6-----------------------
          --6----6-8--6------4-----------------------
          --4----------------------------------------
After Chorus: G# D# F x4
then there are two guitars one keeps playing G# D# F
and one does this: 
G#  D# F D# C# C
--------------------------------------------
--------------------------------------------
-----8--10-8-6-5----------------------------
-6--XXX-X-X-------------------------------
-6--6--8--6-4-3-----------------------------
-4------------------------------------------

Verse 2: x12

---------------------
---------------------
--------66-----------
-4/6xxx-66-----------
-4/6xxx-44-----------
-2/4xxx-------------- 

Chorus 2: x3  G# D# F C# A#

After Chorus thing
theres a little lead part in there, it goes like this:
G--13-15-13 over and over

Solo: a bunch of times
    ----------------------------------
    ----------------------------------
-------4-------4----6-------------
---4/6-4---4/6-4----6-------------
---4/6-2---2/4-2----4-------------
---2/4-----2/4--------------------

Chorus 3:  G# D# C# A# x2

After Chorus thingy a bunch of times lead: G string 
messing around on 13,15,12 frets, you can figure it out


Well, here you go. Im pretty sure most of this right
but if its not, drop me a line reugenem@voyager.net

Comments about this tab

kryptoben - 2004-03-28

the only things that seems askew is the chorus, though the last one seemed close, i think it's something like G#, D#, C#, F, (C#? D#?)
at any rate

ben


Zboy4God - 2006-08-04

I love this song thanks
----------------------------------------------------------------------------
and I love this song and I cant figure out the chords/tabs

Superchic[k] - Stand In The Rain
From the album Beauty From Pain 1.1

So can sum one PLEAS HEEEEEEEEELP MEEEEE!!!!!!!


ggunaji - 2006-12-28

Somebody, please help me learn how to read confusing tabs!!


RJRuiz - 2007-04-09

Hey ggunaji i was the same way 2 the number are the frets the lines are the strings. you go frome bottom to top not top to bottom. and / means to move quikly to the next. () means bend. xxxxx means to hold the same thing down on the same fret.


Add a comment/correction

Complimentary Christian Ringtones
Dadamobile and CGR have teamed up to bring your favorite Christian artists right to your phone. Sign up today and get 10 complementary ringtones!
Tab Country
Did you know CGR has a sister site w/ country guitar tabs? Well we do! Its called Tab Country. It has a great archive with a lot of country tabs.
Rockin Tabs
Are you looking for a site that has rock guitar tabs? Then Rockintabs.com is the place for you. It is a budding site with many rock guitar tabs. Submit your tab today.
Tab Gallery
Tab Gallery has a compilation of christian, rock, and country tabs all in one place. Come visit us.