Guitar Tabs
song title    band name

Join Us Today!

Don't strum alone...
be a part of the largest online Christian music community. Browse thousands of guitar tabs and chat w/ musicians like yourself.


It's Free!

This tab has been rated a 4.00 out of 5 for accuracy. (1 vote)Sorry, but you must be logged in to rate this tab.
Click here to log-in, or you can click here to register.
(Registration is free)

All songs owned by corresponding publishing company. If you make copies of any song on this website, be sure to report your usage to CCLI.
Title: Tribal
Artist: P.O.D.
Album: The Fundamental Elements of Southtown
Tabbed by: Anthony Guerrero/TomTheHotDogGuy@aol.com

Aright, I have seen a couple of Tabs for this song on this site
and most of them are wrong. This is how you play Tribal. 

Intro
e|--------------------------------------------|
B|--------------------------------------------|
G|---5------5---------------------------------|
D|---5---0--5--0----2-~-----------------------|
A|---3---0--3--0----2-~-----------------------|
D|-------0-----0----2-~-----------------------|

Intro pt.2/chorus
e|--------------------------------------------|
B|--------------------------------------------|
G|------------5x8-----------------------------|
D|--2x12-3-0--5---5x8-------------------------|
A|--2----3-0--3---5---------------------------|
D|--2----3-0------5---------------------------|

Verse
e|---------2222-3----|----------------2222-3--|
B|----0-3--2222---3--|---0-3-x3---0-3-2222---3|
G|-------------------|------------------------|
D|--2----------------|-2--------2-------------|
A|-------------------|------------------------|
D|-------------------|------------------------|

Thats all, listen to the song for order of the riffs. Anyways,
if you are down with this tab then e-mail me at tomthehotdogguy@aol.com.
Later all!

Comments about this tab

jcrocker - 2005-01-06

pretty good, not sure about the verse though. The first tab on this site looks like its got the verse right.


the ricksta - 2005-04-30

verse is more like:
e-------2-2-2-2-3-3
b--0-3--3-3-3-3----3
g------------------
d-2---------------
a----------------
d----------------


Add a comment/correction

Complimentary Christian Ringtones
Dadamobile and CGR have teamed up to bring your favorite Christian artists right to your phone. Sign up today and get 10 complementary ringtones!
Tab Country
Did you know CGR has a sister site w/ country guitar tabs? Well we do! Its called Tab Country. It has a great archive with a lot of country tabs.
Rockin Tabs
Are you looking for a site that has rock guitar tabs? Then Rockintabs.com is the place for you. It is a budding site with many rock guitar tabs. Submit your tab today.
Tab Gallery
Tab Gallery has a compilation of christian, rock, and country tabs all in one place. Come visit us.