Guitar Tabs
song title    band name

Join Us Today!

Don't strum alone...
be a part of the largest online Christian music community. Browse thousands of guitar tabs and chat w/ musicians like yourself.


It's Free!

This tab has been rated a 2.00 out of 5 for accuracy. (4 votes)Sorry, but you must be logged in to rate this tab.
Click here to log-in, or you can click here to register.
(Registration is free)

All songs owned by corresponding publishing company. If you make copies of any song on this website, be sure to report your usage to CCLI.
Name’s Sake
Shane Barnard
copyright 2001

This song uses a capo on the seventh fret. 
All notes and chords are relative to capo
h=hammer on
/=slide up
\=slide down

E-022100
G-320033
A-002200
G9-102010


riff 1         riff 2
  
e--0h2-0-----+-0h2-0--------
b--3---3-----+-3---3--------
g--2---------+-2------------
d--------2/4-+-------2/4\2p0
a------------+--------------
E------------+--------------

INTRO-
RIFF 1 , RIFF 2 ,RIFF 1 , RIFF 2 ,G9 
         
AFTER G9 PLAY  d-------2-2/4\2p0 
a-0-2-4----------


riff 1
We come to seek your face
riff 2
Holy spirit,won’t You fall on us
riff 1
speak wisdom to your people,your saints
riff 2                             G9
fill us with the knowledge of You
percussion
fill us with the knowledge of You


E             G     E               G 
overwhelm my heart,overwhelm this place
A
with a passion for Your name
E                    G
we need Your tender mercies
A
Holy spirit won’t You make a change
INTRO
for Your Name’s sake


On the last verse Shane plays percussion on his guitar.
He also plays percussion at other times in the song. I  
hope I didn’t confuse you.If you have any questions or
comments please email _music_7@hotmail.com

Comments about this tab

j0unGz0r - 2004-09-27

its capo 5 and cut-capo 7 or u can get capo 4 and cut-capo 6. and if ppl want to know da percussion part on da verses, u tap twice on da pick guard and then fretboard and then pick guard and then tap on da side which is next to da neck heel. this is definitely correct bcuz i have a video of him doing it. and all u have to do is follow da song. also ur riff is wrong. u probably to correct dat too.


Jonnys_ninja - 2004-11-07

Like j0unGz0r said, there is a version out there that's capo 5 with a cut capo on the 7th fret.
The intro is similar but because of the cut capo it looks like this:

Everything is relative to the cut capo. Lots of times the "0" on both E strings means that
you'll have to reach around the capo or what not to push that fret (7th fret, 0 with both capos on)

E---0h2-0---------0h2-0---------
B---0---0---------0---0---------
G---2---2---------2---2---------
D-0--------2/4--0-------2/4\2p0-
A-------------------------------
E------------------------------- x2


--------------------------------
--------------------------------
--4--4~~-(Drumming on guitar)---
--5-----------------------------
--5-----------------------------
--3-----------------------------


---0h2-0---------0h2-0---------
---0---0---------0---0---------
---2---2---------2---2---------
-0--------2/4--0-------2/4\2p0-
-------------------------------
------------------------------- x2


--------------------------------
--------------------------------
--4--4~~-(Drumming on guitar)---
--5-----------------------------
--5-----------------------------
--3-----------------------------


---0h2---------------
---0-----------------
---2-----------------
-0-----2/4-5-4-2-0---
---------------------
---------------------


---0h2-0---------0h2-0---------
---0---0---------0---0---------
---2---2---------2---2---------
-0--------2/4--0-------2/4\2p0-
-------------------------------
------------------------------- x2


--------------------------------
--------------------------------
--4--4~~-(Drumming on guitar)---
--5-----------------------------
--5-----------------------------
--3-----------------------------


---0h2----------------------
---0------------------------
---2------------------------
-0-----2/4-4h5p4-2----------
-----------------5-4-2------
----------------------5-3-2- (not too sure about the scale)


--------------------------------
--------------------------------
--1---4---1---4---1---4--6------
--2---5---2---5---2---5--7------
--2---5---2---5---2---5--7------
--0---3---0---3---0---3--5------

Enjoy

-jon


Jonnys_ninja - 2004-11-07

Correction on a chord

The
0
0
4
5
5
3 Chord should be changed to this everytime

----------------
----------------
-----------------
-----5--4---------
-----5--5---------
-----3--3--------- Shane hammers on and off from 4 to 5 and what not.


Add a comment/correction

Complimentary Christian Ringtones
Dadamobile and CGR have teamed up to bring your favorite Christian artists right to your phone. Sign up today and get 10 complementary ringtones!
Tab Country
Did you know CGR has a sister site w/ country guitar tabs? Well we do! Its called Tab Country. It has a great archive with a lot of country tabs.
Rockin Tabs
Are you looking for a site that has rock guitar tabs? Then Rockintabs.com is the place for you. It is a budding site with many rock guitar tabs. Submit your tab today.
Tab Gallery
Tab Gallery has a compilation of christian, rock, and country tabs all in one place. Come visit us.