Guitar Tabs
song title    band name

Join Us Today!

Don't strum alone...
be a part of the largest online Christian music community. Browse thousands of guitar tabs and chat w/ musicians like yourself.


It's Free!

Luti-Kriss - Petty Larson

This tab has not yet been rated for accuracy.Sorry, but you must be logged in to rate this tab.
Click here to log-in, or you can click here to register.
(Registration is free)

All songs owned by corresponding publishing company. If you make copies of any song on this website, be sure to report your usage to CCLI.
Song:  Petty Larson
Band:  Luti-Kriss
Album: Throwing Myself
(c) 2001 Solid State Records

tabbed by: andrew craig- andrewacraig@cs.com
		http://beautifulcrisis.hxc.com

drop C tuning (one whole step down, then drop D)
	in the tab strings still read as standard to avoid confusion.

	m next to a note means palm mute.

i will tell all the parts first, then the order.

PART1
d-2-2-2-2-4-4-4-5-5-5-5-5-5-5-5-5-
a-3-3-3-3-3-3-3-3-3-3-3-3-3-3-3-3-
e---------------------------------

PART2
d-2-2-0m-2-2-0m-0m-2-2-0m-2-2-0m-0m-
a-2-2-0m-2-2-0m-0m-2-2-0m-2-2-0m-0m-
e-2-2-0m-2-2-0m-0m-2-2-0m-2-2-0m-0m-

PART3
play PART1 twice and then PART2 once.

PART4
g--12--12--12--11--11--11--9--9--9--9--9--9--9--9--
d-- X-- X-- X-- X-- X-- X--X--X--X--X--X--X--X--X--
a--10--10--10-- 9-- 9-- 9--7--7--7--7--7--7--7--7--
e--------------------------------------------------

g--12--12--12--12--12--12--11--11--11--11--11--11--
d-- X-- X-- X-- X-- X-- X-- X-- X-- X-- X-- X-- X--
a--10--10--10--10--10--10-- 9-- 9-- 9-- 9-- 9-- 9--
e--------------------------------------------------

PART5
g--9--9--9--11--11--11--12--12--12--12--12--12--12--12--
d--X--X--X-- X-- X-- X-- X-- X-- X-- X-- X-- X-- X-- X--
a--7--7--7-- 9-- 9-- 9--10--10--10--10--10--10--10--10--
e-------------------------------------------------------

g--9--9--9--11--11--11--12--12--12--12--12--12--12--12--
d--X--X--X-- X-- X-- X-- X-- X-- X-- X-- X-- X-- X-- X--
a--7--7--7-- 9-- 9-- 9--10--10--10--10--10--10--10--10--
e-------------------------------------------------------

g--12--12--12--12--12--12--12--12--11--11--11--11--11--11--11--11--
d-- X-- X-- X-- X-- X-- X-- X-- X-- X-- X-- X-- X-- X-- X-- X-- X--
a--10--10--10--10--10--10--10--10-- 9-- 9-- 9-- 9-- 9-- 9-- 9-- 9--
e------------------------------------------------------------------

g--12--12--12--12--12--12--12--12--11--11--11--11--11--11--11--11--
d-- X-- X-- X-- X-- X-- X-- X-- X-- X-- X-- X-- X-- X-- X-- X-- X--
a--10--10--10--10--10--10--10--10-- 9-- 9-- 9-- 9-- 9-- 9-- 9-- 9--
e------------------------------------------------------------------

PART6
g-8--8-8---
d-7--7-7-0-
a-6--6-6-0-
e--------0-


PART7
g-8---8---
d-7-0-7-0-
a-6-0-6-0-
e---0---0-

PART8
d-0-0-0-0-0-0-0-0-0-0-0-0-0-0-0-0-  <-- all
a-0-0-0-0-0-0-0-0-0-0-0-0-0-0-0-0-  <-- palm
e-0-0-0-0-0-0-0-0-0-0-0-0-0-0-0-0-  <-- muted

PART9
g-8-8-8-8-8-8-8-8-8-8-8-8------
d-7-7-7-7-7-7-7-7-7-7-7-7-0m-0-
a-6-6-6-6-6-6-6-6-6-6-6-6-0m-0-
e-------------------------0m-0-

PART10
d-2-  <-- sustain
a-2-  <-- to end
e-2-  <-- the song

-----------------------------order:
PART3	1X
PART2	1X
PART4	1X
PART2	1X
PART4 	1X
PART2	1X
PART5	2X
PART2	2X
PART6	16X
PART7	1X
PART6	4X
PART7	2X
PART8	1X
PART7	2X
PART8	1X
PART7	2X
PART8	1X
PART7	4X
PART6	2X
PART9	8X
PART2	2X
PART4	1X
PART2	1X
PART4	1X
PART2	1X
PART4	1X
PART2	1X
PART4	1X
PART2	1X
PART1	1X
PART10	1X

Comments about this tab

No comments/corrections found. Add your own

Complimentary Christian Ringtones
Dadamobile and CGR have teamed up to bring your favorite Christian artists right to your phone. Sign up today and get 10 complementary ringtones!
Tab Country
Did you know CGR has a sister site w/ country guitar tabs? Well we do! Its called Tab Country. It has a great archive with a lot of country tabs.
Rockin Tabs
Are you looking for a site that has rock guitar tabs? Then Rockintabs.com is the place for you. It is a budding site with many rock guitar tabs. Submit your tab today.
Tab Gallery
Tab Gallery has a compilation of christian, rock, and country tabs all in one place. Come visit us.