Guitar Tabs
song title    band name

Join Us Today!

Don't strum alone...
be a part of the largest online Christian music community. Browse thousands of guitar tabs and chat w/ musicians like yourself.


It's Free!

This tab has been rated a 5.00 out of 5 for accuracy. (1 vote)Sorry, but you must be logged in to rate this tab.
Click here to log-in, or you can click here to register.
(Registration is free)

All songs owned by corresponding publishing company. If you make copies of any song on this website, be sure to report your usage to CCLI.
Artist: P.O.D.
Song: Coming Back
Albulm: Snuff the Punk
Tabbed by: Jeff Abbott

i fixed the tuning on this song.  the tuning according 
to the cd is “Db, Ab, Db, G, B, E”.  
It’s just like dropped d except the first three 
strings are tuned down half a step.


Intro:
Clean
(the bass plays a riff and then the guitar comes in)

E |----------------------------------------------------
B |----------------------------------------------------
G |-----------------------4-/6----4h6-4----------------
Db|-------------------------------------7-6-5-3-5-3----
Ab|--3-3/5-------3-3/5-----------------------------3h5-
Db|----------------------------------------------------

E |--------------------------------
B |--------------------------------
G |--------------------------------
Db|--------------------------------
Ab|--3-3/5-------3-3/5-------3-3/5-
Db|--------------------------------

“YEAH”

Dirty

E |-----------------------------------
B |-----------------------------------
G |-----------------------------------
Db|0--0-0-12p13--0-0-3-5-6-5-3h5-3-0--
Ab|0--0-0-12p13--0-0-3-5-6-5-3h5-3-0--
Db|0--0-0-12p13--0-0-3-5-6-5-3h5-3-0--

play that 8 times.


Chorus:

E |-----------------------
B |-----------------------
G |-----------------------
Db|5---6-2-8-7---0--------
Ab|5---6-2-8-7---0--------
Db|5---6-2-8-7---0--------

play that 3 times (i think).

Silence

this part is really distorted and i could only come up with this...

Bridge:

E |----------------------
B |----------------------
G |----------------------
Db|0-0-0-3-0-15-15-15-15-
Ab|0-0-0-3-0-15-15-15-15-
Db|0-0-0-3-0-15-15-15-15-

play that 8 times.

and here’s the rest of the song:


Chorus 4 times.

Bridge 8 times.

Chorus 4 times.

alright, now things change a little bit...
Sonny starts rapping and it goes like this:

Verse:

E |------------------------------
B |------------------------------
G |------------------------------
Db|0---0-0-0--0-0-3-5-6-5-3h5-3--
Ab|0---0-0-0--0-0-3-5-6-5-3h5-3--
Db|0---0-0-0--0-0-3-5-6-5-3h5-3--

E |------------------------------
B |------------------------------
G |------------------------------
Db|0---0-0-0--6-6-6-5-5-5-3--0---
Ab|0---0-0-0--6-6-6-5-5-5-3--0---
Db|0---0-0-0--6-6-6-5-5-5-3--0---

play that 5 times.

Chorus 3 times.

let the last chord ring out for a while.


thanks, have fun and rock on!!

Comments about this tab

Metallistically - 2004-03-14

This is the correct version of coming back. On Drop D tuning, the powerchords change in form to only the index finger, instead of the index, ring, and pinky fingers. And this guy understands that. The wrong version of this song, which is the link above this link, wasn't tabbed by a guy who understands that. So, as I said before THIS is the correct version.


Add a comment/correction

Complimentary Christian Ringtones
Dadamobile and CGR have teamed up to bring your favorite Christian artists right to your phone. Sign up today and get 10 complementary ringtones!
Tab Country
Did you know CGR has a sister site w/ country guitar tabs? Well we do! Its called Tab Country. It has a great archive with a lot of country tabs.
Rockin Tabs
Are you looking for a site that has rock guitar tabs? Then Rockintabs.com is the place for you. It is a budding site with many rock guitar tabs. Submit your tab today.
Tab Gallery
Tab Gallery has a compilation of christian, rock, and country tabs all in one place. Come visit us.