Guitar Tabs
song title    band name

Join Us Today!

Don't strum alone...
be a part of the largest online Christian music community. Browse thousands of guitar tabs and chat w/ musicians like yourself.


It's Free!

This tab has not yet been rated for accuracy.Sorry, but you must be logged in to rate this tab.
Click here to log-in, or you can click here to register.
(Registration is free)

All songs owned by corresponding publishing company. If you make copies of any song on this website, be sure to report your usage to CCLI.
SONG: SHINING IN MY SHOES
ARTIST: VIVA VOCE
ALBUM: HOORAY FOR NOW
WORDS AND MUSIC BY: VIVA VOCE
TABBED BY:  NEIL DUNCAN (TRK2356@MSN.COM)
THESE ARE THE CHORDS AND SOLO.   FOR ACTUAL ARRNGEMENT, PLAY ALONG WITH
THE SONG ( #7 on the cd).

INTRO
E---------------------------------------------------------------
B---------------------------------------------------------------
G--------7----7---7---7------------------7------5------4--------
D--------X----X---X---X-----( 4X )---7------5------4----( 4X )--
A--------5----5--5--5--------------------5------3------2--------
E-------------------------------------------5-------------------


	VERSE  a
E-----------------------------------------------------
B-------ALTERNATE BETWEEN THESE TWO CHORDS---4 X------
G------7-----------------7----------------------------
D------7-----------------X----------------------------
A------5-----------------5----------------------------
E------5-----------------X----------------------------
	
	VERSE  b
------------------------------------------------------
------------------------------------------------------
--4-----5----7----------------------------------------
--4-----5----7-------GO BACK TO VERSE a---------------
--2-----3----5----------------------------------------
--------------5---------------------------------------

	CHORUS

---------------ALTERNATE BETWEEN THESE CHORDS---------
------------------------------------------------------
----7---------5---------------------------------------
----7---------5---------------------------------------
----5---------3---------------------------------------
----5-------------------------------------------------
	SOLO

--------------------PLAY 4 TIMES------------------------------
------------------------------7-8-7--7-8-7----7-8-7-7-8-7-----
---------------------------------------------7--------------7-
-----4-5-4----4-5-7-5-----------------------------------------
--5---------5-----------5-------------------------------------
--------------------------------------------------------------

		RETURN TO CHORUS


THIS IS NOT ARRANGED ON THIS TAB.  THIS IS MY INTERPRETATION OF WHAT I THINK
THE SONG IS.  YOU WILL HAVE TO LISTEN TO AND PLAY ALONG WITH THE CD FOR
ACTUAL ARRANGEMENT.  IF YOU HAVE ANY CHANGES, PLEASE E-MAIL ME WITH THEM.

Comments about this tab

No comments/corrections found. Add your own

Complimentary Christian Ringtones
Dadamobile and CGR have teamed up to bring your favorite Christian artists right to your phone. Sign up today and get 10 complementary ringtones!
Tab Country
Did you know CGR has a sister site w/ country guitar tabs? Well we do! Its called Tab Country. It has a great archive with a lot of country tabs.
Rockin Tabs
Are you looking for a site that has rock guitar tabs? Then Rockintabs.com is the place for you. It is a budding site with many rock guitar tabs. Submit your tab today.
Tab Gallery
Tab Gallery has a compilation of christian, rock, and country tabs all in one place. Come visit us.