Guitar Tabs
song title    band name

Join Us Today!

Don't strum alone...
be a part of the largest online Christian music community. Browse thousands of guitar tabs and chat w/ musicians like yourself.


It's Free!

This tab has been rated a 5.00 out of 5 for accuracy. (1 vote)Sorry, but you must be logged in to rate this tab.
Click here to log-in, or you can click here to register.
(Registration is free)

All songs owned by corresponding publishing company. If you make copies of any song on this website, be sure to report your usage to CCLI.
Velveteen, by Jody Davis
tabbed by me, Jordan Dahl - thejball@hotmail.com
copyright 2001 Pamplin Records, Jody Davis


intro and verse:
you can play it in different positions,
but this is how i play it:

   E  Emaj7  A  Amaj7    B7
e--0---------0----0--- ------
b--0----4----2----2--- ----0-
g--1----1----2----1--- ---2--
D--2----2----2----2--- --1---
A--2----2----0----0--- -2----
E--------------------- ------

Here in the evening garden
Watching through the blinds
Moving across the window
You avoid my eyes
Wearing thin my

The screen door slowly opens
Love won't be denied
Your hand reaches for me
Thread bear comes alive
When you realize

chorus:
there are some various suspended fourths and 
seconds in here on the D and A, but i think you can figure those out.

E
velveteen
G#min
velveteeeen
D        A
vae-elveteen
A
don't wanna be

bridge:

F#            G     
I have superstitions
              A   
Unobtainable visions
                  B          G  
Of how that you want me to feel
                          A
But the wounds from the loving
                    Bmin   E
Can turn velvet to real

solo:
it's hard to hear, but somewhere in there,
Jody's going nuts on his guitar...

Bmin  F# G G# E...
------------------------------------------
------------------------------------------
--7-7--7---------7------------------------
------9-9--9-7----------------------------
---------------9---9-7----7v------0-------
-----------------------10---10--7-7-10----

----------------------------12p0-13b15-13b~~~~~
---------------10----10/13v--------------------
---------10b11----11---------------------------
----12p9---------------------------------------
-----------------------------------------------
-10--------------------------------------------

-14-12-----------------------------------------
---------15p12h15p12--15p12h15p12--15p12h15p12......
--------------------14-----------14------------
-----------------------------------------------
-----------------------------------------------
-----------------------------------------------

-----------------------------------------------
-----------------------------------------------
-/14-14-11----11-------------------------------
-----------14----13b14r13-13/15--12b13r12------
-------------------------------14--------------
-----------------------------------------------

-----------------------------------------------
-----------------------------------------------
-----------------------------------------------  
-12p10--10h12p10---12v-12p10--10-12--12p11p9/12
------12--------12----------12-----------------
-----------------------------------------------
                                             
-----------------------------------------------
-----------------------------------------------
----------------------14--16--------14---------
-14h16p14h16p14b16--16--16--16b17r16----12p9-9-
-----------------------------------------------
-----------------------------------------------

G                        A
But the wounds from the loving
                     E
Can turn velvet to real 


chorus


outro:

C D E              C D E               
------------------------------12---12...
------------------------/12-12--/12----
----14p13-13-13/16---------------------
---------------------------------------
---------------------------------------
---------------------------------------

C           D                        E        C C# D  A(7)
-10-----------------10-10----10------10-10------------------
---12-10-12-10h11h12-----9h10--9/10-8-----10p8--------8--8-8
----------------------------------------------9-9--9\-------
------------------------------------------------------------
------------------------------------------------------------
------------------------------------------------------------


my first tab, how fitting to be a Jody Davis song.....


later

Comments about this tab

No comments/corrections found. Add your own

Complimentary Christian Ringtones
Dadamobile and CGR have teamed up to bring your favorite Christian artists right to your phone. Sign up today and get 10 complementary ringtones!
Tab Country
Did you know CGR has a sister site w/ country guitar tabs? Well we do! Its called Tab Country. It has a great archive with a lot of country tabs.
Rockin Tabs
Are you looking for a site that has rock guitar tabs? Then Rockintabs.com is the place for you. It is a budding site with many rock guitar tabs. Submit your tab today.
Tab Gallery
Tab Gallery has a compilation of christian, rock, and country tabs all in one place. Come visit us.