Guitar Tabs
song title    band name

Join Us Today!

Don't strum alone...
be a part of the largest online Christian music community. Browse thousands of guitar tabs and chat w/ musicians like yourself.


It's Free!

Sonicflood - You Are Worthy of My Praise

This tab has been rated a 4.60 out of 5 for accuracy. (5 votes)Sorry, but you must be logged in to rate this tab.
Click here to log-in, or you can click here to register.
(Registration is free)

All songs owned by corresponding publishing company. If you make copies of any song on this website, be sure to report your usage to CCLI.
You Are Worthy of My Praise
Artist: Sonicflood
Album: SonicPraise
c2001 Gotee music
Tabbed by Steve Cruickshank
(postlambjam@hotmail.com)


Intro: (chorus, with only keyboard)

A  E
Bm D E A
 G
D Bm E G



[On the last G chord of the chorus, the entire band starts playing]



Verse:

The lead guitar plays this stuff during the verse, making a "Maj7"
feel to the chords

e---------4-4-0-------------2-------------0-------------------------------
B---2-----5-5-5------3--------3--------3----3-2-3-------2-----------------
G---2----------------0----------0------2----------------2-------4---/9----
D---2----------------0-----------------0----------------2-------4---/9----
A---0---------------------------------------------------0-------2---/7----
E------------------3------------------------------------------------------
    A    (Amaj7)   G       (Gmaj7)     D     (Dmaj7)    A       Bm   E


A G
D A Bm E
A G

D A Bm E



[chorus]


Verse 2:

[chorus x2]


Then:  A   G   A   G
   A G
   A F
   A F




Lead riffs at the end, with a wah and phaser or something
Improvised stuff around this, while rhythm is A and F  back and forth
e-------------------------------------------------------------------------
B-------------------------------------------------------------------------
G-------------------------------------------------------------------------
D---5-x-x-5-x-5-x-x-x-5h7----5-x-x-5-x-5-x-x-x-5h7------------------------
A-------------------------------------------------------------------------
E-------------------------------------------------------------------------

e-------------------------------------------------------------------------
B-------------------------------------------------------------------------
G-------------------------------------------------------------------------
D---5-x-x-5-x-5-x-x-x-5h7~~--7/9~~--7p5h7---------------------------------
A------------------------------------------7~~~---------------------------
E-------------------------------------------------------------------------

e----------------------------------------------------------------------------
B----------------------------------------------------------------------------
G------------------------------------------------------------------5---5-----
D---5-x-x-5-x-5-x-x-x-5h7~~--7/9~~-9b10r97--7p5h7-5-7-5-7-5-7-5-7---7---7---
A----------------------------------------------------------------------------
E----------------------------------------------------------------------------

e--------------------------------------x-x-x-x-------------------------------
B--------------------------------------x-x-x-x-------------------------------
G--------------------------------------x-x-x-x-------------------------------
D---9-9--9b10r9-------9-9b10r9---------x-x-x-x-------------------------------
A---------------10-------------10------x-x-x-x-------------------------------
E--------------------------------------x-x-x-x-------------------------------

Comments about this tab

superstarmril - 2004-12-21

hey
i always like my tabs with the lyrics so if someone could please put the words with this tab id appericiate it. when u do email it to superstarmrmil@aol.com
jesus
luvs
you and i
do to


JimmyBauge - 2005-01-08

I would like to have the lyrics to... thanks...


JimmyBauge - 2005-01-08

email it to jimmybauge@hotmail.com!! PLEASE??


JimmyBauge - 2005-01-08

email it to jimmybauge@hotmail.com!! PLEASE??


tono213 - 2006-06-28

please leave the lyrics on my box anthony213alta@Hotmail.com
-your brother in GOd


dandaman - 2006-08-17

You people that want lyrics, It helps ALOT if YOU put the lyrics in, It helps with timing and then it isn't a copyright infringement.


kasidilla212 - 2006-11-03

You took my saying


Add a comment/correction

Complimentary Christian Ringtones
Dadamobile and CGR have teamed up to bring your favorite Christian artists right to your phone. Sign up today and get 10 complementary ringtones!
Tab Country
Did you know CGR has a sister site w/ country guitar tabs? Well we do! Its called Tab Country. It has a great archive with a lot of country tabs.
Rockin Tabs
Are you looking for a site that has rock guitar tabs? Then Rockintabs.com is the place for you. It is a budding site with many rock guitar tabs. Submit your tab today.
Tab Gallery
Tab Gallery has a compilation of christian, rock, and country tabs all in one place. Come visit us.