Guitar Tabs
song title    band name

Join Us Today!

Don't strum alone...
be a part of the largest online Christian music community. Browse thousands of guitar tabs and chat w/ musicians like yourself.


It's Free!

Juliana Theory, The - Constellation

This tab has not yet been rated for accuracy.Sorry, but you must be logged in to rate this tab.
Click here to log-in, or you can click here to register.
(Registration is free)

All songs owned by corresponding publishing company. If you make copies of any song on this website, be sure to report your usage to CCLI.
The Juliana Thoery
Constellation
Understanding This is a Dream
©2000 BEC Recordings
Thomas Lipscomb(newfoundglory825@yahoo.com)

Intro:
C

[------------------------------------------------------------------]
[------------------------------------------------------------------]
[12-10-9--12-10-9--12-10-9--12-10-9--12-10-9--12-10-9--12-10-9-----]
[------------------------------------------------------------------]
[------------------------------------------------------------------]
[------------------------------------------------------------------]
C                  F                 E                  F
[------------------------------------------------------------------]
[------------------------------------------------------------------]
[12-10-12--12-10-9--12-10-9--12-10-9--12-10-9--12-10-9--12-10-9--5-]
[------------------------------------------------------------------]
[------------------------------------------------------------------]
[------------------------------------------------------------------]
C                 F                 E                 F

Verse: [Broken Chords]
(C  F  E  F) x4

Riff 1:
C  D  A  A#
C  D  E*  F*

Chorus:
Riff1  A#

Verse

RiFF 2:
[-----------------------------------------------------------------]
[-----------------------------------------------------------------]
[-----------------------------------------------------------------]
[-----------------------------------------------------------------]
[8-8-8-7-7-7-7-7-8-8-8-7-7-7-7-7-10-10-10-8-8-8-7-7---------------]
[--------------------------------------------------8-8-8-8-8-8-8-8]

[-----------------------------------------------------------------]
[-----------------------------------------------------------------]
[-----------------------------------------------------------------]
[---------------------------------------------------9-9-10-10-----]
[12-12-12-10-10-10-12-12-12-10-10-10-12-12-12-8-8-8---------------]
[-----------------------------------------------------------------]

Verse
Riff 1:
C  D  A  A#
C  D  E*  F*

Chorus

D[-8-]

Bridge:
(A  F  G  C  F  C) x2
(A  F  C) x3

Ending: E* F* C~

********************************************
* I canít tell if the song after this goes *
*  with this song, or is a secret song, so *
* I just chose not to tab it...if you want *
*   it, email me and I'll tab it for you   *
********************************************

Comments about this tab

Spidey - 2004-07-04

it seems that maybe on the intro

it might go

g:-12-10-9-12---12-10-9-12---etc...

im not sure, cuz i can't hear the guitar too clearly


Add a comment/correction

Complimentary Christian Ringtones
Dadamobile and CGR have teamed up to bring your favorite Christian artists right to your phone. Sign up today and get 10 complementary ringtones!
Tab Country
Did you know CGR has a sister site w/ country guitar tabs? Well we do! Its called Tab Country. It has a great archive with a lot of country tabs.
Rockin Tabs
Are you looking for a site that has rock guitar tabs? Then Rockintabs.com is the place for you. It is a budding site with many rock guitar tabs. Submit your tab today.
Tab Gallery
Tab Gallery has a compilation of christian, rock, and country tabs all in one place. Come visit us.