Guitar Tabs
song title    band name

Join Us Today!

Don't strum alone...
be a part of the largest online Christian music community. Browse thousands of guitar tabs and chat w/ musicians like yourself.


It's Free!

This tab has been rated a 4.43 out of 5 for accuracy. (7 votes)Sorry, but you must be logged in to rate this tab.
Click here to log-in, or you can click here to register.
(Registration is free)

All songs owned by corresponding publishing company. If you make copies of any song on this website, be sure to report your usage to CCLI.
Salvation
Charlie Hall

(Riff 1 - see below)

E            A2                         E
Salvation spring up from the ground
A2               E
Lord, rend the heavens and come down
A2                 E
Seek the lost and heal the lame
A2                E
Jesus bring glory to Your name

E             A2                E
Let all the prodigals run home
A2                        E
All of creation waits and groans
A2                          E
Lord, we’ve heard of Your great fame
A2                    E
Father, cause all to shout Your name

(Riff 2)

Bsus          C#m7	A2
Stir up our hearts, oh God
Bsus            C#m7  A2          Bsus
Awaken our spirits to awe who You are
C#m7   A2
Put a cry in us
Bsus   A2		Bsus	A2
So deep inside that we cannot find
Bsus     A2
The words we need
Bsus		     Cmaj7
We just weep and cry out to You

(Riff 3)


[For those of you who don't know what a riff is, it's
the guitar solos/picking, etcetera. I will put the
"regular" (technical) notes here, too, so you can see
what we play.]


Riff 1: (Played during the first part of the song)

---7---7---5---5---4---4---5---5------ 
-----5---5---5---5---5---5---5---5----
--------------------------------------
--------------------------------------
--------------------------------------
--------------------------------------
B E B E A E A E G# E G# E A E A E (These are the technical notes)


Riff 2: (Played with bass and guitar right after the first part of the song)

--------------------------------------------------------------
--------------------------------------------------------------
--------------------------------------------------------------
--------------------------------------------------------------
-4/5--4--2------------4/5--4--2-------------------------------
-------------5--3--0--------------5--3--0--3--5--3--5--3--0---
C#/D  C# B  A  G  E  C#/D  C# B  A  G  E  G  A  G  A  G  E 	 (/=slide)


Riff 3: (Played as guitar solo)

----------------------12---------------------
----------12--13--15--------------12--13-----
--13--14------------------13--14-------------
---------------------------------------------
---------------------------------------------
---------------------------------------------
G#   A   B   C   D  E   G#   A   B   C

During the "Salvation Spring up from the ground", the second time on,
it is the power chord of E on the E string. It's held during the first
four lines. The other instruments play the E - A2 thing still.

At the beginning of "Let all the prodigals run home" the guitar slides
from the power chord of D to the power chord of E on the A string. I
believe this, too, is held for the four lines.

Words and Music by Charlie Hall
c 1999 Generation Music/ASCAP

Comments about this tab

justinleeparker - 2006-08-07

The main riff is
C#hD A A(octave) G(muted) Gbend E
C#hD A A(octave) G(muted) Gbend E F#hG F# E F#pulloffE


Add a comment/correction

Complimentary Christian Ringtones
Dadamobile and CGR have teamed up to bring your favorite Christian artists right to your phone. Sign up today and get 10 complementary ringtones!
Tab Country
Did you know CGR has a sister site w/ country guitar tabs? Well we do! Its called Tab Country. It has a great archive with a lot of country tabs.
Rockin Tabs
Are you looking for a site that has rock guitar tabs? Then Rockintabs.com is the place for you. It is a budding site with many rock guitar tabs. Submit your tab today.
Tab Gallery
Tab Gallery has a compilation of christian, rock, and country tabs all in one place. Come visit us.