Guitar Tabs
song title    band name

Join Us Today!

Don't strum alone...
be a part of the largest online Christian music community. Browse thousands of guitar tabs and chat w/ musicians like yourself.


It's Free!

Delirious - Deeper

This tab has been rated a 4.50 out of 5 for accuracy. (10 votes)Sorry, but you must be logged in to rate this tab.
Click here to log-in, or you can click here to register.
(Registration is free)

All songs owned by corresponding publishing company. If you make copies of any song on this website, be sure to report your usage to CCLI.
Deeper - DELIRIOUS?
**********
Tabbed by David Howard, gods_hunter@hotmail.com

This is almost exact, if not the same. I watched a concert on
the internet and During the main riff it was on STU. Well I
watched a few times and now here it is.

Intro Riff
   E   B   C#  A      E   B   D   A
---O---O---O---O------O---O---O-----
---O---O---O---O------O---O---5---9-
---8H9-8H9-8H9-8H9----8H9-8H9-7---9-
---9---9---9---9------9---9---7---7-
---7---X---X---O------7---X---5-----
-------7---9---X----------7---------

Don’t move a lot.  Hammer on and off your pinky with the approriate
rythme.  Only move your index.  Make sure to dampen the string
wherever there is an X above.  The C# is tricky, try switching your
fingering and using your middle finger to hold down the 9th fret C# 
on the E string if you can’t just stretch with your index.

Pre-chorus
(A2  F#m  C#m  B) x2

*********
here are the chord patterns to use in the bridge:

A2:  OO22OO
F#m: O442OO (play it open, don’t barre it)
C#m: O4665O
B:   O244OO (play it open, don’t barre it)
*********

Back to main riff.......


Here is the solo:

SOLO (with chords from main Riff)
----------------|-----------------|-----------------| 
----------------|-----------------|-----------------| 
-8-9-11--8-9----|-8-9-11-9-8-9----|-8-9-11-9-8-9----| 
-------------9--|--------------9--|--------------9--| 
----------------|-----------------|-----------------| 
----------------|-----------------|-----------------| 

-----------------|-----------------|-----------------| 
------------12~--|-----------------|--------9--------| 
-8-9-9-8-9-------|-8-9-11-9-8-9----|-8-9-11---8-9----| 
-----------------|--------------9--|--------------9--| 
-----------------|-----------------|-----------------| 
-----------------|-----------------|-----------------| 

--------------|-----------------|| 
--------------|-----------------|| 
-7--9-11--14--|-13--16~-16~-16~-|| 
--------------|-----------------|| 
-5--7--9--12--|-11--14~-14~-14~-|| 
--------------|-----------------||

Comments about this tab

AcousticServant - 2005-01-23

good tab


skanigit - 2006-12-09

yes, well done.


Add a comment/correction

Complimentary Christian Ringtones
Dadamobile and CGR have teamed up to bring your favorite Christian artists right to your phone. Sign up today and get 10 complementary ringtones!
Tab Country
Did you know CGR has a sister site w/ country guitar tabs? Well we do! Its called Tab Country. It has a great archive with a lot of country tabs.
Rockin Tabs
Are you looking for a site that has rock guitar tabs? Then Rockintabs.com is the place for you. It is a budding site with many rock guitar tabs. Submit your tab today.
Tab Gallery
Tab Gallery has a compilation of christian, rock, and country tabs all in one place. Come visit us.