Guitar Tabs
song title    band name

Join Us Today!

Don't strum alone...
be a part of the largest online Christian music community. Browse thousands of guitar tabs and chat w/ musicians like yourself.


It's Free!

Dogwood - Building a Better Me

This tab has been rated a 5.00 out of 5 for accuracy. (1 vote)Sorry, but you must be logged in to rate this tab.
Click here to log-in, or you can click here to register.
(Registration is free)

All songs owned by corresponding publishing company. If you make copies of any song on this website, be sure to report your usage to CCLI.
Song: Building a Better Me
Artist:	Dogwood
Tabbed by: Brandon Pfaff pfaff_sk8er@yahoo.com
Copyright: Dogwood 1999


Intro:
e---------------------------------------------------------------------------|
B---------------------------------------------------------------------------|
G---------------------------------------------------------------------------|
D---------------------------------------------------------------------------|
A-11-11-11-11-11-11-9-9/13-13/14-13- twice clean then 4x distorted----------|
E---------------------------------------------------------------------------|


Verse:
e---------------------------------------------------------------------------|
B---------------------------------------------------------------------------|
G---------------------------------------------------------------------------|
D-------------------------------------2-2-2222-6-6-6666-2-2-2222-6-6-6666---|
A-6-6-6666-4-4-4444-6-6-6666-4-4-4444-2-2-2222-4-4-4444-2-2-2222-4-4-4444---|
E-4-4-4444-2-2-2222-4-4-4444-2-2-2222---------------------------------------|

Play Intro twice at end of each line

Chorus:
e---------------------------------------------------------------------------|
B---------------------------------------------------------------------------|
G---------------------------------------------------------------------------|
D-44444444-66666666----------2XXXX-2-1--------------------------------------|
A-22222222-44444444-66666666-2XXXX------Repeat 2times i’m not real sure ----|
E-------------------44444444-0XXXX---------about the little thing after the-|
palm mutes. And second time------|
through dont palm mute


Bridge:
e---------------------------------------------------------------------------|
B---------------------------------------------------------------------------|
G-11--9--8----11--9--6---I’m not sure how many times to repeat--------------|
D---------------------------------------------------------------------------|
A-9---7--6-----9--7--4------------------------------------------------------|
E---------------------------------------------------------------------------|

Listen to song to figure out how many times to play each part.
This tab is at least probably 90% correct if not one hundred. 
I Saw them live last night I’m pretty sure this is it.

Comments about this tab

No comments/corrections found. Add your own

Complimentary Christian Ringtones
Dadamobile and CGR have teamed up to bring your favorite Christian artists right to your phone. Sign up today and get 10 complementary ringtones!
Tab Country
Did you know CGR has a sister site w/ country guitar tabs? Well we do! Its called Tab Country. It has a great archive with a lot of country tabs.
Rockin Tabs
Are you looking for a site that has rock guitar tabs? Then Rockintabs.com is the place for you. It is a budding site with many rock guitar tabs. Submit your tab today.
Tab Gallery
Tab Gallery has a compilation of christian, rock, and country tabs all in one place. Come visit us.