Guitar Tabs
song title    band name

Join Us Today!

Don't strum alone...
be a part of the largest online Christian music community. Browse thousands of guitar tabs and chat w/ musicians like yourself.


It's Free!

Stavesacre - Keep Waiting

This tab has been rated a 5.00 out of 5 for accuracy. (1 vote)Sorry, but you must be logged in to rate this tab.
Click here to log-in, or you can click here to register.
(Registration is free)

All songs owned by corresponding publishing company. If you make copies of any song on this website, be sure to report your usage to CCLI.
Artist: Stavesacre
Song:  Keep Waiting
Album:  Speakeasy
Copyright:  Stavesacre/Tooth and Nail
Transcribed by Gregory
tbcgregory@aol.com

Dropped D, as always.

Figure 1.
E------------------------------------- 4x before Gtr. 1 comes in
B--------2------3-----------3p2-------
G-----2-----2-------2----2--------2---
D--0----------------------------------
A-------------------------------------
D-------------------------------------End Fig. 1

Guitar 1 continues playing Figure 1.
E-------------------------------------------------------------------
B-------------------------------------------------------------------
G-------------------------------------------------------------------
D---0-0-0-0-4-4-----5-5-5-5p4-4~~~~--0-0-0-0-4-4-----9-9-9-9p7-7~~~~
A---0-0-0-0-4-4-----5-5-5-5p4-4~~~~--0-0-0-0-4-4-----9-9-9-9p7-7~~~~
D---0-0-0-0-4-4-----5-5-5-5p4-4~~~~--0-0-0-0-4-4-----9-9-9-9p7-7~~~~

E-------------------------------------------------------------------
B-------------------------------------------------------------------
G-------------------------------------------------------------------
D------0-0-0-0-4-4--------5-5-5-5p4-4~~~~--/9-9-9-0-7-7-7-7-7-7-7-7-
A------0-0-0-0-4-4--------5-5-5-5p4-4~~~~--/9-9-9-0-7-7-7-7-7-7-7-7-
D------0-0-0-0-4-4--------5-5-5-5p4-4~~~~--/9-9-9-0-7-7-7-7-7-7-7-7-

Verse  riff Both Gtrs. 1st time  Start Fig. 1
Pm---------l        pm-l                      pm-----l        pml
E-------------------------------------------------------------------
B-------------------------------------------------------------------
G-------------------------------------------------------------------
D--0-0-0-0-4p0-0-0-0-5-5-5-5p4-4~-0-0-0-0-4p0-0-0-0-9-9-9-9p7-7~----
A--0-0-0-0-4p0-0-0-0-5-5-5-5p4-4~-0-0-0-0-4p0-0-0-0-9-9-9-9p7-7~----
D--0-0-0-0-4p0-0-0-0-5-5-5-5p4-4~-0-0-0-0-4p0-0-0-0-9-9-9-9p7-7~----

Pm---------l        pm-l 
E------------------------------------------------------------------ 2x 
B------------------------------------------------------------------see
G------------------------------------------------------------------below
D------0-0-0-0-4p0-0-0-0-5-5-5-5p4-4~/9-9-9-0-7-7-7-7-4-5~~~-------
A------0-0-0-0-4p0-0-0-0-5-5-5-5p4-4~/9-9-9-0-7-7-7-7-4-5~~~-------
D------0-0-0-0-4p0-0-0-0-5-5-5-5p4-4~/9-9-9-0-7-7-7-7-4-5~~~-------

Gtr 2 plays this the 2nd time.  Gtr. 1 keeps playing verse riff
E---------------------------------------------------------------------- 
B----------------------------------------------------------------------
G--6/7-7-7-7-7-7-7-7-7/9-9-9-9\7-7-7-7-7-7-7-7-7-7\6-6-6-6/7-7-7-7-7-7-
D--x/x-x-x-x-x-x-x-x-x/x-x-x-x\x-x-x-x-x-x-x-x-x-x\x-x-x-x/x-x-x-x-x-x-
A--4/5-5-5-5-5-5-5-5-5/7-7-7-7\5-5-5-5-5-5-5-5-5-5\4-4-4-4/5-5-5-5-5-5-
D----------------------------------------------------------------------

E--------------------------------------------------------------
B--------------------------------------------------------------
G------7-7-7-7/9-9-9-9/11-11-11-11-11-11-11-6-6-6-6-6-6-6-6----
D------x-x-x-x-x-x-x-x-x--x--x--x--x--x--x--x-x-x-x-x-x-x-x----
A------5-5-5-5/7-7-7-7/9--9--9--9--9--9--9--4-4-4-4-4-4-4-4----
D--------------------------------------------------------------End Fig. 2

Pre Chorus Both Gtrs  Fig. 3
E-------------------------------------------------------------------
B-------------------------------------------------------------------
G-------------------------------------------------------------------
D--x-x-11-11--x-x-11-11--x-x-5-------x-x-11-11--x-x-11-11--x-x-5----
A--x-x-9--9---x-x-9--9---x-x-5-------x-x-9--9---x-x-9--9---x-x-5----
D--x-x-9--9---x-x-9--9---x-x-5-------x-x-9--9---x-x-9--9---x-x-5----

E----------------------------------
B----------------------------------
G----------------------------------
D------------------5/9-9-9-9\7-7-0-
A------------------5/9-9-9-9\7-7-0-  End Fig. 3
D------------------5/9-9-9-9\7-7-0-   Then Gtr. 1 plays Fig. 1 2x

Back into Fig. 2. 3 times, this time

Pre Chorus Fig 3 again.

Chorus Gtr 1 Fig. 4
E--------------------------------------------------------
B--------------------------------------------------------
G--------------------------------------------------------
D------0------------------5------------------------------
A------0------------------5------------------------------
D------0------------------5------------------------------


E--------------------------------------------------------
B--------------------------------------------------------
G--------------------------------------------------------
D------0------------------5------------------------------
A------0------------------5------------------------------
D------0------------------5------------------------------

E-----------------------------   Gtr 2 plays open D 8th notes
B-----------------------------   occasionally opening the high E string.
G-----------------------------
D------9-9-9-0-7-7-7-7-7-7-7~~
A------9-9-9-0-7-7-7-7-7-7-7~~
D------9-9-9-0-7-7-7-7-7-7-7~~  End fig. 4

Play PreChorus-Fig. 3

Bridge.  Gtr 1 starts playing fig.1 immediately after pre-chorus
Gtr. 2 starts this right after pre-chorus
E-------------------------------------------------------
B-------------------------------------------------------
G-------------------------------------------------------
D------0-----------------------4-5----------------------
A------0-----------------------4-5----------------------
D------0-----------------------4-5----------------------


E-------------------------------------------------4x?
B-------------------------------------------------
G-------------------------------------------------
D------7--0---------------------------------------
A------7--0---------------------------------------
D------7--0---------------------------------------

Chorus 4 times

Pre chorus Fig 3

Both gtrs play Gtr. 2's part of Fig 1 (heavy part of intro riff)

Comments about this tab

spazboy20180 - 2005-10-26

dude, nice job...right on the money!!!


eclipse_047 - 2005-11-22

Stavesacre ROCKS!!!


Add a comment/correction

Complimentary Christian Ringtones
Dadamobile and CGR have teamed up to bring your favorite Christian artists right to your phone. Sign up today and get 10 complementary ringtones!
Tab Country
Did you know CGR has a sister site w/ country guitar tabs? Well we do! Its called Tab Country. It has a great archive with a lot of country tabs.
Rockin Tabs
Are you looking for a site that has rock guitar tabs? Then Rockintabs.com is the place for you. It is a budding site with many rock guitar tabs. Submit your tab today.
Tab Gallery
Tab Gallery has a compilation of christian, rock, and country tabs all in one place. Come visit us.