Guitar Tabs
song title    band name

Join Us Today!

Don't strum alone...
be a part of the largest online Christian music community. Browse thousands of guitar tabs and chat w/ musicians like yourself.


It's Free!

Bleach - Cold and Turning Blue

This tab has not yet been rated for accuracy.Sorry, but you must be logged in to rate this tab.
Click here to log-in, or you can click here to register.
(Registration is free)

All songs owned by corresponding publishing company. If you make copies of any song on this website, be sure to report your usage to CCLI.
Group:Bleach
Song:Cold and Turning Blue
CD:Space

I didnít like the other tab for this, not that it was wrong
or anything, but this will let you play more of the song.

Intro Listen to the CD to get the strumming pattern
e-0---0---3--------------------------------------------
B-1---1---0--------------------------------------------
G-2---2---0--------------------------------------------
D-2---0---0---2-2-x-3-3/7------------------------------
A-0---3---2---2-2-x-3-3/7------------------------------
E-0---3---3---0-0-x-1-1/5------------------------------

Verse
Guitar 1 continues to play this through out the verse.
e-0---0---3--------------------------------------------
B-1---1---0--------------------------------------------
G-2---2---0--------------------------------------------
D-2---0---0---2-2-x-3----------------------------------
A-0---3---2---2-2-x-3----------------------------------
E-0---3---3---0-0-x-1----------------------------------

Guitar 2 plays this (It isnt exactly right, but it works,
again, strum it the same as guitar 1)
e------------------------------------------------------
B------------------------------------------------------
G------------------------------------------------------
D-7---5---10--2--3-3/7---------------------------------
A-7---5---10--2--3-3/7---------------------------------
E-5---3---8---0--1-1/5---------------------------------

Repeat about 4 times
then on the 5th time play this
e-0---0---3--------------------------------------------
B-1---1---0--------------------------------------------
G-2---2---0--------------------------------------------
D-2---0---0--7/9--9--9/7--7--7/9--9--9/7--7-7/9-9/7/11-
A-0---3---2--7/9--9--9/7--7--7/9--9--9/7--7-7/9-9/7/11-
E-0---3---3--5/7--7--7/5--5--5/7--7--7/5--5-5/7-7/5/9--

Chorus
Guitar 1
e-0--------------2----------3-------0-----------------
B-1--------------3----------0-------1-----------------
G-0--------------2----------0-------2-----------------
D-2--------------0----------0-------2-----------------
A-3--------------0----------2-------0-----------------
E-0--------------0----------3-------0-----------------

Guitar 2
e---------------------------------------------------
B---------------------------------------------------
G---------------------------------------------------
D-11--11--11--11--11/13--13--13--14--14--11~~~~~----
A-11--11--11--11--11/13--13--13--14--14--11~~~~~----
E-9---9---9---9---9/11---11--11--12--12--9~~~~~~-----
*repeat this and the line below once

(Guitar 1 silent during Guitar 2ís slide)
e---------------------------------------------------
B---------------------------------------------------
G---------------------------------------------------
D-7/9--9--9/7--7--7/9--9--9/7--7-7/9-9/7/11---------
A-7/9--9--9/7--7--7/9--9--9/7--7-7/9-9/7/11---------
E-5/7--7--7/5--5--5/7--7--7/5--5-5/7-7/5/9---------- 
on the repeat, donít play the last slide ^
just go back to the verse and play it through again.

I donít know the solo yet,Iíll get it soon,but thatís all I got.
Aaron

Comments about this tab

No comments/corrections found. Add your own

Complimentary Christian Ringtones
Dadamobile and CGR have teamed up to bring your favorite Christian artists right to your phone. Sign up today and get 10 complementary ringtones!
Tab Country
Did you know CGR has a sister site w/ country guitar tabs? Well we do! Its called Tab Country. It has a great archive with a lot of country tabs.
Rockin Tabs
Are you looking for a site that has rock guitar tabs? Then Rockintabs.com is the place for you. It is a budding site with many rock guitar tabs. Submit your tab today.
Tab Gallery
Tab Gallery has a compilation of christian, rock, and country tabs all in one place. Come visit us.